Stop Censorship
 
 

 
 1-9 a b c d e f g h i j k l m n o p q r s t u v w x y z
   Barenaked Ladies - Pinch Me Tab    

Band:Barenaked Ladies
Song:Pinch me

Intro:
F G C F
e|---------------------|---------------------|
B|-----1---------------|---------------------|
G|---------------------|----0----------------| Repeat
D|----------------0----|----2-----0--2--3-2--|
A|-------------------2-|-3-------------------|
E|-1-------1s3---------|---------------------|


Main verse: Note 1 difference!
F G C F
e|---------------------|---------------------|
B|-----1---------------|---------------------|
G|----------------2----|----0----------------|
D|----------------0----|----2-----0--2--3-2--| Repeat until:
A|-------------------2-|-3-------------------|
E|-1-------1s3---------|---------------------|


D/F# F G

e|---------------------|---------------------|
B|-----3----------3----|-------1---------3---|
G|---------------------|---------------------|
D|---0----------0------|-----0--------0------|
A|---------------------|---------------------|
E|-2------2--2---------|--1------1/3---------|
It`s colder than it looks outside



C G
It`s like a dream - you try to remember but it`s gone, then ya
F D
Try to scream but it only comes out as a yawn, when ya
C G F
Try to see the world beyond your front door.

Similar for the other choruses.


For the `Pinch Me` bit:

Am G F G

e|---------------------|---------------------|
B|-----1---------3-----|----1---------3------|
G|-----2-------0----0--|--0--0------0---0----|
D|---2-----------------|---------------------|
A|-0----0--------------|---------------------|
E|-----------3--------3|-1----1---3-------3--|

Pinch me, pinch me, cause I`m still asleep
Please God, tell me, that I`m still asleep

Tabber:Maxime Legault