Stop Censorship
 
 

 
 1-9 a b c d e f g h i j k l m n o p q r s t u v w x y z
   Barenaked Ladies - Thanks That Was Fun Tab    

The Barenaked Ladies Ė Thanks That Was Fun

Chords:
Em7 Cadd9 Dsus4 G B A Am D F
E|--3----3------3-----3---3-------------2----3-------------------------|
B|--3----3------3-----3---3---2-----1---3----3-------------------------|
G|--0----0------2-----0---0---2-----2---2----0-------------------------|
D|--2----2------------0---0---2-----2--------0-------------------------|
A|--2----3------------2---2------------------0-------------------------|
E|--------------------3----------------------2-------------------------|


Em7 Cadd9 Dsus4 G x4

Em7 Cadd9 Dsus4 G
Iím learning.
Em7 Cadd9 Dsus4 G
Iím yearning.
Em7 Cadd9 B A
Iím burning all your stuff,
Am D
But thatís not enough.
Em7 Cadd9 Dsus4 G
Iím faking
Em7 Cadd9 Dsus4 G
That Iím aching
Em7 Cadd9 B A
Mis-ta -king lust for love.

Am D
Thanks that was fun.
G Cadd9 B
Donít forget, no regrets
Am D
ícept maybe one

Em7 Cadd9 Dsus4 G
Did I scare you
Em7 Cadd9 Dsus4 G
when I dared you
Em7 Cadd9 B A
I stared you in the eye
Am D
and told you good-bye.
Em7 Cadd9 Dsus4 G
You mocked me.
Em7 Cadd9 Dsus4 G
it shocked me,
Em7 Cadd9 B A
When you walked me to the bus.

Am D
Thanks that was fun
G Cadd9 B
Donít forget, no regrets
Am D
ícept maybe one
G Cadd9 B
Made a deal, not to feel
Am
god, thatís dumb

Cadd9 B G F Em7 Dsus4
Ev erybody knows the deal fell through.
Cadd9 B G F Em7 Dsus4
I was hoping I could just blame you.
Cadd9 B G F Em7 Dsus4
When was it that I became so soft

Cadd9 G
This sentimentality doesnít look good on me.
Cadd9 G
I thought that you would be begging to be with me.
Cadd9 G
Iím the one on my knees, blubbering,
Am D
Please, let me stay.

(no guitar)
Deflated
and jaded
A
I hate it when you call
Am7 D
which isnít at all
Em7 Cadd9 Dsus4 G
Iíve spo- ken,
Em7 Cadd9 Dsus4 G
though bro- ken
Em7 Cadd9 B A
Hereís a to- ken of my love

Am D
Thanks that was fun
G Cadd9 B
Donít forget, no regrets
Am D
ícept maybe one
G Cadd9 B
Made a deal, not to feel
Am D
god, that was dumb
G Cadd9 B
Donít forget, no regrets
Am D
ícept maybe one
G Cadd9 B
Made a deal, not to feel
Am D
Thanks that was fun

G Cadd9 B Am D x4

E|---------------------12--10-12-12--10-------------------12--10-12-12-12p10--|
B|--12--10-12--13--12-------------------12--10-12--13--12---------------------|
G|----------------------------------------------------------------------------|x2
D|----------------------------------------------------------------------------|
A|----------------------------------------------------------------------------|
E|----------------------------------------------------------------------------|


The Chord names probably arenít right, but I donít know what theyíre actually called