Stop Censorship
 
 

 
 1-9 a b c d e f g h i j k l m n o p q r s t u v w x y z
   Beach Boys - I Get Around (melody) Tab    

e ] ---------------------------------------------1---0------------------------------------------------------0---1--
B] ------------------------------------------------------3-3-3-3-----------0-1-----1-0-1-2----2-2-3------------
G] -----------------------------------2-2---2-------------------------0-2------------------------------------------
D] ----------------------------------------------------------------------------------------------------------------
A] ---3---3---3-3---3----0-0-0-0---------------------------------------------------------------------------------
E] ----------------------------------------------------------------------------------------------------------------


e] ------------1---0----------------------------------------------------------------------------------------------
B] ---2-2-2------------3------------------------------------------------------------------------------------------
G] ----------------------------2-2-0---2---0-0-------------------------2-2-0—2-2---0------------0----------
D] ------------------------------------------------0-0-2-0---3---2-0-----------------------0---2-0---0-2-0---
A] ----------------------------------------------------------------------------------------------------------------
E] ----------------------------------------------------------------------------------------------------------------

e] ---------------------------------------------1---0------------------------------------------------------0---1--
B] ------------------------------------------------------3-3-3-3-----------0-1-----1-0-1-2----2-2-3------------
G] -----------------------------------2-2---2-------------------------0-2------------------------------------------
D] ----------------------------------------------------------------------------------------------------------------
A] ---3---3---3-3---3----0-0-0-0---------------------------------------------------------------------------------
E] ----------------------------------------------------------------------------------------------------------------

e] ------------1---0-------------------------------------------------------1---0----------------
B] ---2-2-2------------3-----------------------------------------------------------3-3-3-3----
G] ---------------------------------------------------------------2-2---2-----------------------
D] -----------------------------------------------------------------------------------------------
A] -------------------------------3---3---3-3---3----0-0-0-0---------------------------------
E] -----------------------------------------------------------------------------------------------

e] ----------------------0--------------------------------0--------------------------0---1---0-------------------
B] ------1-1---1---3--------3-1-1-1---2-2---2----3-------3-2-2-2---3-3---3--------------3-3-3---3-3---3
G] ----------------------------------------------------------------------------------------------------------------
D] ----------------------------------------------------------------------------------------------------------------
A] ----------------------------------------------------------------------------------------------------------------
E] ----------------------------------------------------------------------------------------------------------------

e ] ---0---1---5-3-3-3---
B] ------------------------
G] ------------------------

If you have any questions, queries or corrections i`d love to help you but i don`t speak english.