Stop Censorship
 
 

 
 1-9 a b c d e f g h i j k l m n o p q r s t u v w x y z
   Beach Boys - Wipe Out Tab    

this is as good as i can think how he plays it so just have fun with it and rate it

e----------------------------------------------------------------------------------
b----------------------------------------------------------------------------------
g----------------------------------------------------------------------------------
d--------8-9-10-10-10-8-------------------------------------------------------------
a-10-10------------------10-10------------------------------------------------------
e----------------------------------------------------------------------------------4x`s

e----------------------------------------------------------------------------------
b----------------------------------------------------------------------------------
g-------8-9-10-10-10-8--------------------------------------------------------------
d-10-10-----------------10-10-------------------------------------------------------
a----------------------------------------------------------------------------------
e----------------------------------------------------------------------------------
2x`s

e----------------------------------------------------------------------------------
b----------------------------------------------------------------------------------
g----------------------------------------------------------------------------------
d--------8-9-10-10-10-8-------------------------------------------------------------
a-10-10------------------10-10------------------------------------------------------
e----------------------------------------------------------------------------------
2x`s

e----------------------------------------------------------------------------------
b----------------------------------------------------------------------------------
g-------10-11-12-12-12-10---------10-10-10-10----------------------10-8-------------
d-12-12--------------------12-12--------------12------8-9-10-10-10------10-10-10-10-
a-------------------------------------------------10--------------------------------
e----------------------------------------------------------------------------------