Stop Censorship
 
 

 
 1-9 a b c d e f g h i j k l m n o p q r s t u v w x y z
   Beach Boys - Wipe Out Tab    

Song: Wipe Out
Artist: beach boys
ok iíve seen a bunch of tabís for this song but this the best one..guarenteed!

e|-------------------------------------------------------------------------------|
b|--(play these 4 notes very fast) ----------------------------------------------|
g|----------/---------------/--------------------------------------------------|
d|----5-6-7777-5-----5-6-7777-5--------------------------------------------------|
a|--7------------7-7-------------7-7---------------------------------------------|
e|-----------repeat 2 times------------------------------------------------------|

e|-----------------------|
b|-----------------------|
g|----5-6-7777-5---------|
d|--7-------------77-----| repeat 2 times
a|-----------------------|
e|-----------------------|

e|-------------------------------------------------------------------|
b|--(play these 4 notes very fast) ----------------------------------|
g|----------/---------------/--------------------------------------|
d|----5-6-7777-5-----5-6-7777-5------5-6-7777-5----------------------|
a|-----------------7-7-------------7-7---------------7---------------|
e|-------------------------------------------------------------------|

e|-----------------------------------|
b|-----------------------------------|
g|----5-7-9999-7--- 9-7777-5---------|
d|--7--------------9-9---------7-----|
a|-----------------------------------|
e|-----------------------------------|

e|-------------------------------------------------------------------|
b|--(play these 4 notes very fast) ----------------------------------|
g|----------/---------------/--------------------------------------|
d|----5-6-7777-5-----5-6-7777-5------5-6-7777-5----------------------|
a|-----------------7-7-------------7-7---------------7---------------|
e|-------------------------------------------------------------------|

Play over and over again

If have any questions e-mail me at GT_snowracer@hotmail.com

submitted by Kris Dontas