Stop Censorship
 
 

 
 1-9 a b c d e f g h i j k l m n o p q r s t u v w x y z
   Beach Boys - Wipe Out Tab    

Mxtabs[http:/www.mxtabs.net]
Band name: Beach Boys
Song title Wipe Out
Tabbed by: BoYbAnDsSuCk011
Standard tuning
Key:
/=slide up/down neck
~=let ring
This is my first tab so bear with me on it. (Oh and you might want to play it really fast so it sounds good.Oh i forgot to post this the first time....this is only the intro!)

E------------
B------------
G------------
D------------
A--1-2-333-1-
E-3---------3 x4

E------------
B------------
G------------
D--1-2-333-1-
A-3---------3
E------------ x2

E------------
B------------
G------------
D------------
A--1-2-333-1-
E-3---------3 x2

E------------------------------------
B----------------------------------1~
G------------------------------------
D--3-4-555-3-5/333-1-3-------------2~
A-5---------5-------3-333-1-3------3~
E--------------------------3-333333--