Stop Censorship
 
 

 
 1-9 a b c d e f g h i j k l m n o p q r s t u v w x y z
   Beach Boys - Wipe Out Tab    

----3-------------------3--3------------------------------------
-------1--2--3--3--1---------3-----------------------3--3-------
-----------------------------------1--2--3--3--3--1-------------
----------------------------------------------------------------
----------------------------------------------------------------
----------------------------------------------------------------


----------------------------------------------------------------
----5----------------------5--------------------3---------------
-------3--4--5--5--5--3------5--3--3--3--1----------------------
----------------------------------------------------------------
----------------------------------------------------------------
----------------------------------------------------------------


----3----------------------3-----------------------------------
-------1--2--3--3--3--1----------------------------------------
---------------------------------------------------------------
---------------------------------------------------------------
---------------------------------------------------------------
---------------------------------------------------------------