Stop Censorship
 
 

 
 1-9 a b c d e f g h i j k l m n o p q r s t u v w x y z
   Beach Boys - Wipe Out Tab    


WWWWWWWIIIIIIIPPPPPPEEEEEOOOOOUUUUUTTTTTT!!!!


author = ElEcTrIfIeD
Key = e


e--------------------------------
b-0-3-4-5-5-3-0--0-3-4-5-5-3-0---
g--------------------------------
d--------------------------------
a--------------------------------
e--------------------------------

e-0-3-4-5-5-3-0--0-3-4-5-5-3-0---
b--------------------------------
g--------------------------------
d--------------------------------
a--------------------------------
e--------------------------------

Repeat first part

e-0-3-5-7-5-5-5-7-5-3------------
b---------------------5----------
g--------------------------------
d--------------------------------
a--------------------------------
e--------------------------------

have fun ;)