Stop Censorship
 
 

 
 1-9 a b c d e f g h i j k l m n o p q r s t u v w x y z
   Beach Boys - Wipe Out Tab    

e---------------------------
b---------------------------
g---------------------------x4
d---8-9-10-10-10-8----------
a10----------------10-10----
e---------------------------

e-----------------------------------------------------
b-----------------------------------------------------
g-----------------------------------------------------
d---10-11-12-12-12-10-------10-11-12-12-12-10---------
a12-------------------12-12-------------------12-12---

e-----------------------------------------------
b-----------------------------------------------
g-----------------------------------------------
d---8-9-10-10-10-8-------8-9-10-10-10-8---------
a10----------------10-10----------------10-10---
e-----------------------------------------------


e----------------------------------------------------------------------
b----------------------------------------------------------------------
g----------------------------------------------------------------------
d---8-10-12-12-12-10-------12-10-10-10-----------8-9-10-10-10-8--------
a10------------------12-12-------------12-10--10----------------10-10--
e----------------------------------------------------------------------

e-------------------------8---8----1---8----5---1---8----
b-------------------------8---8----1---8----5---1---8----
g-------------------------9---9----2---9----6---2---9----
d---10-8------------------10--10---3---10---7---3---10---
a10-------10-10-10-10-10--10--10---3---10---7---3---10---
e-------------------------8---8----1---8----5---1---8----
listen to song for timing, then it goes back to the top Nd goes over again sorry i have to still figure out the solo ill have it in maybe 5 days