Stop Censorship
 
 

 
 1-9 a b c d e f g h i j k l m n o p q r s t u v w x y z
   Beach Boys - Wipe Out Tab    

“Wipe Out” by the Beach Boys
This is my first tab so I hope it works for ya:

Main Riff:
E---------------------------
B---------------------------
G---------------------------
D---8-9-10-10-10-8----------
A-10----------------10-10---
E--------------------------- X4

E-----------------------------------------------------
B-----------------------------------------------------
G----8-9-10-10-10-8-------8-9-10-10-10-8--------------
D-10----------------10-10----------------10-----------
A-----------------------------------------------------
E-----------------------------------------------------

E--------------------------------------------
B--------------------------------------------
G--------------------------------------------
D----8-9-10-10-10-8------8-9-10-10-10-8------
A-10---------------10-10----------------10---
E--------------------------------------------

E----------------------------------------
B---------8-8-8--------8-----------------
G----8-10-------10-7-7---10-10-10-8------
D-10--------------------------------10---
A----------------------------------------
E----------------------------------------

E-------------------------------------------------
B-------------------------------------------------
G-------------------------------------------------
D----8-9-10-10-10-8-------8-9-10-12-12-12-12--12--
A-10----------------10-10--------10-10-10-10—-10--
E-------------------------------------------------

These are all bar chords
E--8--8--1--8--3--1--8---3-3-3-3--
B--8--8--1--8--3--1--8---3-3-3-3--
G--9--9--2--9--4--2--9---4-4-4-4--
D--10-10-3--10-5--3--10--5-5-5-5--
A--10-10-3--10-5--3--10--5-5-5-5--
E--8--8--1--8--3--1--10--3-3-3-3--


Then it goes into a solo and then back to the main riff.
The ending just plays the main riff over and over and
Fades out. It’s not that hard, but good luck!