Stop Censorship
 
 

 
 1-9 a b c d e f g h i j k l m n o p q r s t u v w x y z
   Black Crowes - Hard To Handle Tab    

Artist: black crowes
Song: hard to handle
Tabed by craig
Any questions email me at: kirmitdafrog_29@hotmail.com

Tuning standard

/ = slide up
= slide down
h = hammer on
p = pull off
x = dead note
b = bend
~ = vibrato

Im not sure about the intro sorry.

verse
B B A A# B
E|------7-x-x----------------7-x-x-5--6-7
B|------7-x-x-----9----------7-x-x-5--6-7
G|------8-x-x-----9-7h8~-----8-x-x-6--7-8
D|--9-9-9-x-x-7h9--------9-9-9-x-x-7--8-9
A|--9-9-9-x-x------------9-9-9-x-x-7--8-9
E|--7-7-7-x-x------------7-7-7-x-x-5--6-7


Pre-chorus
F# F# B
E|--2-----2---7
B|--2-----2---7
G|--3-----3---8
D|--4-----4---9
A|--4-----4---9
E|--2-----2---7

Chorus
A E B B
E|--5-0-7-7-x-x-x
B|--5-0-7-7-x-x-x
G|--6-1-8-8-x-x-x
D|--7-2-9-9-x-x-x
A|--7-2-9-9-x-x-x
E|--5-0-7-7-x-x-x

Solo

with the bends in the solo you have to play the string while
you are still holding the bend. i will indicate this with a *

E|---------------------------------------------------------------------
B|--9b*-10p9p7----7---------9-7----------------------------------------
G|-------------10---10p9p7--9-7--------------7------------------7------
D|------------------------------7-9----7-9-9---9-7-9-9----7-9-9---9-7-9
A|-----------------------------------9------------------9--------------
E|---------------------------------------------------------------------

Solo (continued)

E|------9-7------7------10p7----7-
B|--9b*-9-7-9/10---10p7------10-7-
G|--------------------------------
D|--------------------------------
A|--------------------------------
E|--------------------------------

for this nex bit of the solo keep holding the bend on the 6th through the whole thing

E|------5---5---5--------------5---5---5---5-7-
B|--6b*---6---6---6--------6b*---6---6---6-----
G|----------------^----------------------------
D|-----------release bend----------------------
A|---------------------------------------------
E|---------------------------------------------

outro

E|-----------------------
B|-----------------------
G|--9b-7-9-7----9b-7-9-7-
D|-----------9-----------
A|-----------------------
E|-----------------------

you might have to listen to the song for timing and order