Stop Censorship
 
 

 
 1-9 a b c d e f g h i j k l m n o p q r s t u v w x y z
   Black Label Society - Bridge To Cross Tab    

Tuned A = 430




Intro (4 times) (confirmed by Nick Catanese)
E-----------------0-------------
B----------3---------3---3-----2
G------------0---------0---0---2
D-------4------4---------------2
A-----2------------------------0
E-0-----------------------------

2nd Intro/Chorus(2x)
E-----------------------------------------------------------
B-----------------------------------------------------------
G---------0-----------0----------------0----------------0---
D------------2----------0---------4-------4---4-----------2-
A-----2------------2------------5---5-------5--------2------
E-0--------------3-----------7--------------------0---------

E----------------------------------------------------- -0
B----------------------------------------------------- -0
G--------0-----------2-----------0-------------------- -0
D-----2-----2------1---1------------------------------ -2
A--3------------2-------------2----------------------- -2
E-------------------------0-----------3b--0----3--2--- -0

Verses(First bar is played 8 times, then the second is place twice, then ending)
E-----------------0-------------
B----------3---------3---3-----2
G------------0---------0---0---x
D-------4------4---------------2
A-----2------------------------0
E-0-----------------------------





Second Bar of verses
E--0-----------------------------------------------------
B--0-----------------------------------------------------
G--0-------------------0---------------------0-----------
D--2--------------4-------4---4---------4-------4---4----
A--3------------5---5-------5---------5---5-------5------
E------------7---------------------7---------------------

E--0-----------
B--0-----------
G--0-----------
D--2---------4-
A--3---------5-
E------------7-

Ending of Verses
E-----------
B-----------
G-----------
D-----------
A-----------
E-7-6----5-3



Chorus
E-----------------------------------------------------------
B-----------------------------------------------------------
G---------0-----------0----------------0----------------0---
D------------2----------0---------4-------4---4-----------2-
A-----2------------2------------5---5-------5--------2------
E-0--------------3-----------7--------------------0---------

E----------------------------------------------------- -0
B----------------------------------------------------- -0
G--------0-----------2-----------0-------------------- -0
D-----2-----2------1---1------------------------------ -2
A--3------------2-------------2----------------------- -2
E-------------------------0-----------3b--0----3--2--- -0


Notes:

Song format as follows

Intro
2nd Intro/Chorus
Verse
Chorus
Verse
Chorus
Second Bar of Verse(bridge)
Solo
Chorus
Intro

During the chorus, you can add the "step-up" that the bass does during the guitar line, but Zakk doesn`t do it on the record with the guitar.

The chorus is exactly right because Zakk does a lot of extra picking, but this is the basis. Throw in extra *** every time you play it so it doesn`t all sound the same.




Solo by Meth (Suk0tto@aol.com)

e------------17^-------17^--15--14-15-14-------------------------12--15--
B-------------------------------------------17-------------------12--15--
G--14------------------------------------------------------14^---12--14--
D----------------------------------------------------------------12--14--
A----------------------------------------------------------------12--15--
E----------------------------------------------------------------12--15--
(something like that)



e----------------------------------------------------------------
B----------T------------------------T------------------------T----
G--14^12---19^2------------14^12---19^2--------------14^12---19^2
D----------------------------------------------------------------
A----------------------------------------------------------------
E----------------------------------------------------------------
Full bend on A note, release each time.
Last time hold the A note release, obviously.




Trill on all of these.
e-----------------------------------------
B-----------------------------------------
G---0--2----------------------------------
D-----------5--4----4--2--0--2------------
A--------------------------------------0--
E-----------------------------------------
Dive on this real low then release


e----------12------------------------------------------12-------------------------
B-----12--------15---12-----------------------------12----15--12------------------
G-14^----------------------14---12------12------14^---------------14--12------11--
D-----------------------------------14------------------------------------14------
A---------------------------------------------------------------------------------
E---------------------------------------------------------------------------------


e--------12---------------------------------------------------------------------
B-----12----15--12--------------------------------------------------------------
G-14^-----------------14--12-------12------12---14---16---14---11---12--11--11--
D-----------------------------14------------------------------------------------
A-------------------------------------------------------------------------------
E-------------------------------------------------------------------------------


e--------12---------12------------12-------------------------------------------17-^---
B-----12--------15-^---15^------------15--12------------12---------------------17-^---
G-14-^---------------------------------------14--12---------14------12----------------
D----------------------------------------------------14---------14--------------------
A-------------------------------------------------------------------------------------
E-------------------------------------------------------------------------------------