Stop Censorship
 
 

 
 1-9 a b c d e f g h i j k l m n o p q r s t u v w x y z
   Brad Paisley - Holdin On To You Tab    


Send any corrections or suggestions to Drugz@drug.org (Alaa) (Egypt)

INTRO

G C(add9) G C(add9)

E-----------------------------------------|
B------3----------3--------3----------3---|
G----0---0------0---0----0---0------0-----|
D---0-0-0-0--0h2-2-2-0--0-0-0-0--0h2-2----|
A-----------3-------------------3---------|
E--3-------------------3------------------|



VERSE PICKING STYLE


G C(add9) D C(add9) D G C(add9) D C(add9)

E--------------------------------------------------------------------------------
B------3----------3------3-----------3------------3----------3------3----------3-
G----0---0------0---0---2-------0---0-----0-----0---0------0---0---2-----0----0--
D---0-0-0-0--0h2-2-2---0--0--0h2-2-2---0-4-4---0-0-0-0--0h2-2-2---0--0--2-2--2---
A-----------3--------3------3-----3--------------------3--------3------3----3----
E--3------------------------------------------3----------------------------------


D Am C Am C D(add9) D G/B (leads into chorus)

E-----2-------------------------------------------0----2------|
B-----3-------1--------1--------1--------1-------3-----3--0---|
G---2-2-----2---2----0---0----2-2-2----0-----0--2------2--0---|
D--0--0-2--2-2-2-2--2-2-2-2--2-2-2-2--2-2-2-4--0-------0--0---|
A---------0--------3--------0--------3--------------------2---|
E-------------------------------------------------------------|