Stop Censorship
 
 

 
 1-9 a b c d e f g h i j k l m n o p q r s t u v w x y z
   Brad Paisley - Whiskey Lullaby(acoustic)1gtr Tab    

Ok i spent like a whole week without sleeping trying to get this tab so give me some credit please
this goes out to a girl who i really like but she gives me heartbreaks a lot but this is her favorite song at
the moment so i tried tabbing it out hope u like it....
Standard tunning
H= hammer on
P= pull-off

Bm A Bm A G A G A

E---0h2-2-0--------0h2-2-0---0h2-0h3-3-3h5-5-5h3-----
B-----------3-2-0----------3----------------------2-- ok i hear like another gtr here but i dont know the tabs
G-------------------------------------------------2--
D-------------------------------------------------2--
A-2-------------2------------------------------------
E----------------------------------------------------



Verses:
D G Bm A
E----------0-----------------3--------------------------
B------3-----3-----------3-----3---------------3------2-
G----2---2-----2-------0---0-----0---------4-----4----2-
D--0-------------0-----------------0-----4---4-----4--2-
A------------------------------------0h2----------------
E------------------0h3----------------------------------

D G A
E----------0-----------------3-----------------------
B------3-----3-----------3-----3-------------2-------
G----2---2-----2-------0---0-----0-------2-----2-----
D--0-------------0-----------------0---2---2-----2---
A------------------------------------0-------------0-
E------------------0h3-------------------------------

Bm A D Bm A D A
E--------------------------2-------------------------------2-----------------------
B----------3----2------3-----3-------------3----2------3-----3-------------2-------
G------4-----4--2----2---2-----2-------4-----4--2----2---2-----2-------2-----2-----
D----4---4------2--0-------------0---4---4------2--0-------------0---2---2-----2---
A--2-------------------------------2-------------------------------0-------------0-
E----------------------------------------------------------------------------------

Chorus:

D G A Bm G
E----------3-----------------------------------------------3-------
B------3-----3-------------2---------------3-----------3-----3-----
G----2---2-------------2-----2---------4-----4-------0---0-----0---
D--0-------------0---2---2-----2-----4---4-----4-----------------0-
A------------------0-------------0-2-------------0-----------------
E--------------3-----------------------------------3---------------

D G A Bm G
E----------3-----------------------------------------------3-------
B------3-----3-------------2---------------3-----------3-----3-----
G----2---2-------------2-----2---------4-----4-------0---0-----0---
D--0-------------0---2---2-----2-----4---4-----4-----------------0-
A------------------0-------------0-2-------------0-----------------
E--------------3-----------------------------------3---------------

D G A Bm G
E----------3-----------------------------------------------3-------
B------3-----3-------------2---------------3-----------3-----3-----
G----2---2-------------2-----2---------4-----4-------0---0-----0---
D--0-------------0---2---2-----2-----4---4-----4-----------------0-
A------------------0-------------0-2-------------0-----------------
E--------------3-----------------------------------3---------------

D G A G Bm A
E----------3-------------------------------3------------------------
B------3-----3-------------2-----------3-----3-------------3----2-0-
G----2---2-------------2-----2-------0---0-----0-------4-----4--2---
D--0-------------0---2---2-----2-----------------0---4---4------2---
A------------------0-------------0-----------------2----------------
E--------------3-------------------3--------------------------------

Bm A G G
E-----------------0---------3---------------3-------]
B----------3----2-------3-----3---------3-----3-----]
G------4-----4--2-----0---0-----0-----0---0-----0---]
D----4---4------2-----------------0---------------0-]
A--2------------------------------------------------]
E-------------------3---------------3---------------]

THNX oh hey its easier if u finger pick lol ok... i love you nicole!!
Blink 182 rocks...slipknot doesn`t