Stop Censorship
 
 

 
 1-9 a b c d e f g h i j k l m n o p q r s t u v w x y z
   Brad Paisley - Whiskey Lullaby Tab    


Send any corrections or suggestions to Drugz@drug.org (Alaa) (Egypt)

Intro:
e-------0h2-2-0-----------0h2-2-0---0h2-3-2/3-5-2h3-5p3----e
b---------------3-2-0-------------3--------------------(12)b
g------------------------------------------------------(12)g
d----4-----------------------------------------------------d
a-2--------------------2-----------------------------------a
E----------------------------------------------------------E

D G Bm
She put him out like the burning end of a midnight cigarette
A D(Fill 1)G A
She broke his heart he spent his whole life trying to forget
Bm A D (Fill 1)
We watched him drink his pain away a little at a time
Bm A D (Fill 1)
But he never could get drunk enough to get her off his mind
A
Until tonight...


Chorus 1:
D G A (Fill 1)
He put that bottle to his head and pulled the trigger
Bm A G (Fill 2)
And finally drank away her memory
D A (Fill 1)
Life is short but this time it was bigger
Bm A G (Fill 2)
Than the strength he had to get up off his knees
D A (Fill 1)
They found him with his face down in the pillow
Bm A G (Fill 2)
With a note that said I`ll love her til I die
D A (Fill 1)
And when we buried him beneath the willow
G Bm
The angel`s sang a whiskey lullaby
Bm G
La la la la la la la, La la la la la la la
Bm G
La la la la la la la, La la la la la la la


D (Fill 1) G Bm
The rumors flew but nobody knew how much she blamed herself
A D G A (Fill 1)
For years and years she tried to hide the whiskey on her breath
Bm A D (Fill 1)
She finally drank her pain away a little at a time
Bm A D (Fill 1)
But she never could get drunk enough to get him off her mind
A
Until the night...


Chorus 2:
D G A (Fill 1)
She put that bottle to her head and pulled the trigger
Bm A G (Fill 2)
And finally drank away his memory
D A (Fill 1)
Life is short but this time it was bigger
Bm A G (Fill 2)
Than the strength she had to get up off her knees
D A (Fill 1)
We found her with her face down in the pillow
Bm A G (Fill 2)
Clinging to his picture for dear life
D A (Fill 1)
We laid her next to him beneath the willow
G Bm
While angel`s sang a whiskey lullaby
Bm G
La la la la la la la, La la la la la la la

e-0h2-2-0--------0h2-2-0---2-3--------e
b---------3-2-0----------3------------b
g-------------------------------------g
d-------------------------------------d
a-------------------------------------a
E-------------------------------------E
(repeat twice)

N.C.
la la la la la la la la la la la la la la






e---0h2----e e-----32-------e
b----------b b---------------b
g----------g g---------------g
d----------d d---------------d
a----------a a---------------a
E----------E E---------------E
(Fill 1) (Fill 2)



Chords:
A = x02220
Bm = xx4432
D = xx0232
G = 320003