Stop Censorship
 
 

 
 1-9 a b c d e f g h i j k l m n o p q r s t u v w x y z
   Casualties - Destruction And Hate Tab    

Destruction and Hate

Intro

e|------------------------------
b|------------------------------
g|------------------------------
d|-----9---7-7-7-6-4--------------
a|---7---7-----------7------------
e|------------------------------

Part1 (CH)

e|---------------------------------------------
b|---------------------------------------------
g|---9-9-9-9-9--------------------9-9------------
d|---9-9-9-9-9--9-9-9-9-9--7-11-9-9-9--9---------
a|---7-7-7-7-7--9-9-9-9-9--7-11-9-7-7--9---------
e|--------------7-7-7-7-7--5--9-7------7---------

part2 2x

e|---------------------------------------------
b|---------------------------------------------
g|---14-14-14-13-13-9---14-14-14-13-13-16-16-----
d|---14-14-14-13-13-9---14-14-14-13-13-16-16-----
a|---12-12-12-11-11-7---12-12-12-11-11-14-14-----
e|-----------------------------------------------