Stop Censorship
 
 

 
 1-9 a b c d e f g h i j k l m n o p q r s t u v w x y z
   Casualties - F You All Tab    

*** You All - Casualties

Intro: prt.1
e-------------------------------------------
B-------------11-----------------------9----
G---8------11----11--------10--------9---9--
D-9---9----11-------11--11----11-----9-----9
A-9-----9---9-----------11-------11--7------
E-7----------------------9------------------

e-------------------------------------------------------------------------
B-------------------11-11--------------------------------------9-9--------
G---8-8----------11-------11-11-----------10-10--------------9-----9-9----
D-9-----9-9------11-------------11-11--11-------11-11--------9---------9-9
A-9---------9-9---9--------------------11-------------11-11--7------------
E-7-------------------------------------9---------------------------------


Intro: prt.2 (* = Palm Mute)
e------------------------------------------------------------------
B------------------------------------------------------------------
G------------------11----------------------------------------------
D-9----------------11-11-11-11-11-11-11-11--11---------------------
A-9-9-9-9-9-9-9-9---9--9--9--9--9--9--9--9--11-11-11-11-11-11-11-11
E-7-7-7-7-7-7-7-7------------*--*--*--*--*---9--9--9--9--9--9--9--9
* * * * * * * * * *

e----------------
B----------------
G-9--------------
D-9-9-9-9-9-9-9-9
A-7-7-7-7-7-7-7-7
E-------*-*-*-*-*


Intro: prt.3
e---------------------------
B---------------------------
G------11-11---------9-9-9-9
D-9-9--11-11--11-11--9-9-9-9
A-9-9---9--9--11-11--7-7-7-7
E-7-7----------9--9---------


Intro: prt.4 / Verse:
e-----------------------------------------------
B-----------------------------------------------
G----------11-11-11-11---------------11-11-11-11
D-9-9-9-9--11-11-11-11--11-11-11-11--11-11-11-11
A-9-9-9-9---9--9--9--9--11-11-11-11---9--9--9--9
E-7-7-7-7----------------9--9--9--9-------------


Chorus:
e-------------------------------------------
B-------------------------------------------
G-9-9-9-9------------------------11-11-11-11
D-9-9-9-9--9-9-9-9--11-11-11-11--11-11-11-11
A-7-7-7-7--9-9-9-9--11-11-11-11---9--9--9--9
E----------7-7-7-7---9--9--9--9-------------


End of chorus:
e-------------
B-------------
G-11--9-------
D-11--9--11--9
A--9--7--11--9
E---------9--7


Bridge: (palm mute with up/down strokes)
e------------------------------------------------------------------
B------------------------------------------------------------------
G------------------11----------------------------------------------
D-9----------------11-11-11-11-11-11-11-11--11---------------------
A-9-9-9-9-9-9-9-9---9--9--9--9--9--9--9--9--11-11-11-11-11-11-11-11
E-7-7-7-7-7-7-7-7------------*--*--*--*--*---9--9--9--9--9--9--9--9
* * * * * * * * * *

e------------------------
B------------------------
G-11---------------------
D-11-11-11-11-11-11-11-11
A--9--9--9--9--9--9--9--9
E-----------*--*--*--*--*


intro: prt.1
intro: prt.2 2x
intro: prt.3
intro: prt.4 2x
verse: 4x
chorus: 4x
end of chorus:
verse: 4x
chorus: 4x
end of chorus:
verse: 4x
chorus: 4x
end of chorus: 3x
bridge: 2x
verse: 4x
chorus: 4x
end of chorus: 3x