Stop Censorship
 
 

 
 1-9 a b c d e f g h i j k l m n o p q r s t u v w x y z
   Casualties - Fight For Your Life Tab    

The Casalties
Fight for your life
Tabbed by: Ben Quirk whiteadrenaline86@hotmail.com

Very easy, but awesome casualties song!!
Intro, Chorus
E|--------------------------------------------------------|
B|--------------------------------------------------------|
G|--------------------------------------------------------|
D|-----------------6-6-6-6-6-6-6-6------------------------|
A|-6-6-6-6-6-6-6-6-4-4-4-4-4-4-4-4------------------------|
E|-4-4-4-4-4-4-4-4----------------------------------------|

Verse
E|--------------------------------------------------------|
B|--------------------------------------------------------|
G|-----------------6-6-6-6--------------------------------|
D|-6-6-6-6-6-6-6-6-4-4-4-4-6-6-4--6-----------------------|
A|-4-4-4-4-4-4-4-4---------4-4-2--4-----------------------|
E|--------------------------------------------------------|

Bridge
E|--------------------------------------------------------|
B|--------------------------------------------------------|
G|---------6-6-6------------6-6-6-----------6-6-6---------|
D|-4-4-4-6-4-4-4--6-4-4-4-6-4-4-4-6-4-4-4-6-4-4-4-6-4-----|
A|-2-2-2-4--------4-2-2-2-4-------4-2-2-2-4-------4-2-----|
E|-----------------------------------------------------7*-|
^Trem. Pick harmonic