Stop Censorship
 
 

 
 1-9 a b c d e f g h i j k l m n o p q r s t u v w x y z
   Casualties - For The Punks Tab    

For The Punks

Intro 1 (PM)

e|-----------------------------------
b|-----------------------------------
g|-----------99999999----------------
d|--77777777-99999999-55555555-777-7-
a|--77777777-77777777-55555555-555-7-
e|--55555555----------33333333-----5-

Intro 2 Now PM--only the first chords

e|-----------------------------------
b|-----------------------------------
g|-----------99999999----------------
d|--77777777-99999999-55555555-777-7-
a|--77777777-77777777-55555555-555-7-
e|--55555555----------33333333-----5-

Part 1--Same as Intro 2 but no PM

(CH) 4x

e|-----------------------------------
b|-----------------------------------
g|---5-7-10-9--------------------
d|---5-7-10-9-----------
a|---3-5-8--7----------
e|------------------

Part 1

(CH)

Part1