Stop Censorship
 
 

 
 1-9 a b c d e f g h i j k l m n o p q r s t u v w x y z
   Casualties - Here Today Tab    

intro
e|---------------------------------------------------------------------------|
B|---------------------------------------------------------------------------|
G|----------7---7-------7------x2--------------------------------------------|
D|--------7-7-9-7-9-7-5-7-11-9-----------------------------------------------|
A|--------7-5-9-5-9-7-5-5-11-9-----------------------------------------------|
E|--------5---7---7-5-3---9--7-----------------------------------------------|

verse. you have to play : 1st part, 2nd, 1st, 2nd, etc.. however many times.
e|---------------------------------------------------------------------------|
B|-----------------x2--------------------------------------------------------|
G|---------7---7---------7---------------------------------------------------|
D|-------7-7-7-7-------5-7-11-9-7--------------------------------------------|
A|-------7-5-7-5-------5-5-11-9-7--------------------------------------------|
E|-------5---9---------3---9--7-5--------------------------------------------|

chorus
e|---------------------------------------------------------------------------|
B|---------------------------------------------------------------------------|
G|---------------------------------------------------------------------------|
D|----5--9-7-9-7-------------------------------------------------------------|
A|----5--9-7-9-7-------------------------------------------------------------|
E|----3--7-5-7-5-------------------------------------------------------------|

bridge
e|---------------------------------------------------------------------------|
B|---------------------------------------------------------------------------|
G|----7-----7-6--------------------------------------------------------------|
D|----7-7-9-7-6--------------------------------------------------------------|
A|----5-7-9-5-4--------------------------------------------------------------|
E|------5-7------------------------------------------------------------------|

solo (you have to pick 7 and 9 really fast. there`s a word for it, but I`m
stupid)
e|---------------------------------------------------------------------------|
B|---------------------------------------------------------------------------|
G|----7---9---11--12--11--12-------------------------------------------------|
D|---------------------------------------------------------------------------|
A|---------------------------------------------------------------------------|
E|---------------------------------------------------------------------------|