Stop Censorship
 
 

 
 1-9 a b c d e f g h i j k l m n o p q r s t u v w x y z
   Casualties - Kill The Hippies Tab    

Band: Casualties
Song: Kill The Hippies

Tabbed By Adrian Chavez(That Mexican Guy With The Guitar)
Tuning: Standard

Every thing is there just figure out how many times to play it
This song is real easy its one the first ones ive learned
Im sure its right and if not it sounds right to me


x: Stop from rinnging


e|------------------------------------------
B|------------------------------------------
G|-9-9999999999--10-9--7-77777-4-44444------
D|-9-9999999999--10-9--7-77777-4-44444------
A|-7-7777777777--8--7--5-55555-2-22222------
E|------------------------------------------


e|----------------------------------------
B|----------------------------------------
G|-------5555--7777--5-33-33--------------
D|-2222--5555--7777--5-33-33--------------
A|-2222--3333--5555--3-55-55--------------
E|-0000-----------------------------------


e|--------------------------------------------
B|--------------------------------------------
G|-------5555--7777--5-55-5--2---5-55-5-------
D|-2222--5555--7777--5-55-5--2---5-55-5-------
A|-2222--3333--5555--3-33-3--4---3-33-3-------
E|-0000---------------------------------------