Stop Censorship
 
 

 
 1-9 a b c d e f g h i j k l m n o p q r s t u v w x y z
   Casualties - Nightmare Tab    

Casualties - Nightmare

intro/verse:
e|---------------------------------------------------------------------------|
B|---------------------------------------------------------------------------|
G|7-5-----7--10-10----7-5----12-10-------------------------------------------|
D|7-5-7---7--10-10----7-5-5--12-10-------------------------------------------|
A|5-3-7---5---8--8----5-3-7--10--8-------------------------------------------|
E|----5-------------------7--------------------------------------------------|

After the intro (play a few times)
e|---------------------------------------------------------------------------|
B|---------------------------------------------------------------------------|
G|55-77----------------------------------------------------------------------|
D|55-77----------------------------------------------------------------------|
A|33-55----------------------------------------------------------------------|
E|---------------------------------------------------------------------------|

Bridge
e|-------------------------------------------------------------------------------|
B|-------------------------------------------------------------------------------|
G|5/7------10101010-7-----------------------------12-------------7---------------|
D|5/7-7777-10101010-7 [let ring] -----------------12-------------7---------------|
A|5/7-7777--8-8-8-8-5-----------------------------10-------------5---------------|
E|----5555-----------------------------------------------------------------------|

Solo
e|-----------------------------------------------------------------------------------|
B|----------------------------------------------------------------55-88-55-----------|
G|-5-3---3-5-3---3-5-3---3-5-5b--5-3-------------3-----3-5-5-55-77---------7-5-------|
D|-----5-------5-------5B-----------3-0--3--0-3---3-5-3-5-5--------------------5-3-0-|
A|-----------------------------------------------------------------------------------|
E|-----------------------------------------------------------------------------------|