Stop Censorship
 
 

 
 1-9 a b c d e f g h i j k l m n o p q r s t u v w x y z
   Casualties - Nightmare Tab    

Riff 1: Into + Main part

e------------------------------------------------------
b------------------------------------------------------
g--7--5-2--7--10-10--7--5-2--12-12-10-10---------------
d--5--3-2--5--10-10--7--5-2--12-12-10-10---------------
a--5--3-0--5--8--8---5--3-0--10-10-8--8----------------
E------------------------------------------------------

During the singing part play the -7- -10- and -12- 4 times each
-7- -10- -12-
-5- -8-- -10-


Riff 2: During the part when hey sing "its a nightmare"

e--------------------------------------------------------------------
b--------------------------------------------------------------------
g--2222-10101010-77777777--------------2222-10101010-12--121212------
d--2222-10101010-77777777- Play 3x-----2222-10101010-12--121212------
a--0000-8 8 8 8--55555555--------------0000-8 8 8 8--10--101010------
E--------------------------------------------------------------------

Tabbed my lalifali