Stop Censorship
 
 

 
 1-9 a b c d e f g h i j k l m n o p q r s t u v w x y z
   Casualties - Police Brutality Tab    

Police Brutality

part1 4x

e|-----------------------------------
b|-----------------------------------
g|----9-7-6-4----------------------
d|--7-9-7-6-4-----
a|--7-7-5-4-2-----
e|--5--------------------------------
(CH) 4x

e|-------------------------------
b|--------------------------------
g|--11-9--------------------------
d|--11-9--------------------------
a|--9--7--------------------------
e|-------------------------------

part1 4x

(CH)

part 2


e|---------------------------------
b|-|````3x````````|-|``6x```|--------
g|----9-12-9-12-9-----7---------------
d|--7-9-12-9-12-9-----7-7-5----7-7-7--
a|--7-7-10-7-10-7-----5-7-5----7-7-7--
e|--5-------------------5-3----5-5-5--

part 1 4x

(CH)