Stop Censorship
 
 

 
 1-9 a b c d e f g h i j k l m n o p q r s t u v w x y z
   Casualties - Police Brutality Tab    

Police Brutality - Casualties

Intro
e|---------------------------------------------------------------------------|
B|---------------------------------------------------------------------------|
G|---------------------------------------------------------------------------|
D|----7-------7------7-------------------------------------------------------|
A|----7-------7------7-------------------------------------------------------|
E|----5-------5------5-----pick slide----------------------------------------|

Verse 4x
e|---------------------------------------------------------------------------|
B|-------(*)--(*)--(*)--(*)--------------------------------------------------|
G|--(*)---9----7----6----4---------------------------------------------------|
D|---7----9----7----6----4---------------------------------------------------|
A|---7----7----5----4----2---------------------------------------------------|
E|---5-----------------------------------------------------------------------|

Chorus 4x
e|---------------------------------------------------------------------------|
B|---------------------------------------------------------------------------|
G|--11---------------9-------------------------------------------------------|
D|--11-4x----9-------9-4x---9------------------------------------------------|
A|---9-------9-4x----7------9-4x---------------------------------------------|
E|-----------7--------------7------------------------------------------------|

Solo
e|---------------------------------------------------------------------------|
B|---------------------------------------------------------------------------|
G|---------9--------12----9---12----9-------------9-----12---9--12---9-------|
D|--7------9-3x-----12----9---12----9------7------9-3x--12---9--12---9-------|
A|--7-3x---7--------10----7---10----7------7-3x---7-----10---7--10---7-------|
E|--5--------------------------------------5---------------------------------|

e|---------------------------------------------------------------------------|
B|-----------------12------------------9-------------------------------------|
G|---------9-------12---let it ring----9--------7-----------7----------------|
D|-7-------9-3x----10------------------7--------7-3x---7----7-3x--7---5------|
A|-7-3x----7------------------------------------5------7----5-----7---5------|
E|-5---------------------------------------------------5----------5---3------|

e|---------------------------------------------------------------------------|
B|---------------------------------------------------------------------------|
G|--7----------7---------------7----------7----------------------------------|
D|--7-3x--7----7-3x--7--5------7-3x--7----7-3x---7---5-----7--7--7-----------|
A|--5-----7----5-----7--5------5-----7----5------7---5-----7--7--7-----------|
E|--------5----------5--3------------5-----------5---3-----5--5--5--xxx------|

Outro
e|---------------------------------------------------------------------------|
B|---------------------------------------------------------------------------|
G|---------------------------------------------------------------------------|
D|---7-----7----7----7------------------7------------------------------------|
A|---7-----7----7----7------------------7------------------------------------|
E|---5-----5----5----5----pick slide----5------------------------------------|