Stop Censorship
 
 

 
 1-9 a b c d e f g h i j k l m n o p q r s t u v w x y z
   Casualties - Punk Rock Love Tab    

ok this tab is just about perfect there might be 1 or 2 things wrong with it but that would most likely be ending because they add that last chord in there also some of the chords can be changed where theyre played at so if u know how to do that yourself feel free i just wrote it the way that was easiest for me to play it.

Intro prt1
|------------------------------------------------------------------|
|------------------------------------------------------------------|
|------------------------------------------------------------------|
|---2---2---6---6-----7-9-7---9-11-9-7-6---------------------------|
|-0---0---4---4---4-5-------7--------------------------------------|
|------------------------------------------------------------------|

intro prt2
|------------------------------------------------------------------|
|---10-10-9---9-10-12-10---9-12-10-9-------------------------------|
|-9---------9------------9-----------------------------------------|
|------------------------------------------------------------------|
|------------------------------------------------------------------|
|------------------------------------------------------------------|

|------------------------------------------------------------------|
|---10-10-9---9-10-12-10---9-12-10-9-------------------------------|
|-----------9------------9-----------------------------------------|
|------------------------------------------------------------------|
|------------------------------------------------------------------|
|------------------------------------------------------------------|

intro prt3
|------------------------------------------------------------------|
|-10p9h10p9h10-p-9h10p9h10-12-10-9---------------------------------|
|------------------------------------------------------------------|
|------------------------------------------------------------------|
|------------------------------------------------------------------|
|------------------------------------------------------------------|

chorus
|------------------------------------------------------------------|
|------------------------------------------------------------------|
|---------9-9-9-9-11-11-11-11-7-7-7-7------------------------------|
|-7-7-7-7-9-9-9-9-11-11-11-11-7-7-7-7------------------------------|
|-7-7-7-7-7-7-7-7-9 -9 -9 -9 -5-5-5-5------------------------------|
|-5-5-5-5----------------------------------------------------------|

verse
|------------------------------------------------------------------|
|------------------------------------------------------------------|
|---------9-9-9-9--------------------------------------------------|
|-7-7-7-7-9-9-9-9-11-11-11-11-12-12-12-12--------------------------|
|-7-7-7-7-7-7-7-7-11-11-11-11-12-12-12-12--------------------------|
|-5-5-5-5---------9 -9 -9 -9 -10-10-10-10--------------------------|

song order:

intro prt1 x2

intro prt2

intro prt3 x2

chorus x4

verse x2

chorus x4

verse x2

chorus x4

intro prt2

verse x2

chorus x4

ends on |-----------|
|-----------|
|-----------|
|----7------|
|----7------|
|----5------|