Stop Censorship
 
 

 
 1-9 a b c d e f g h i j k l m n o p q r s t u v w x y z
   Casualties - Society%E2%80%99s Fodder Tab    

Society’s Fodder-The Casualties

Intro
E----------------------------------------------------------------
B----------------------------------------------------------------
G--7------7----------------------7------7----10----9-------------
D--7------7-------8-----10-------7------7----10----9-------------
A--5------5-------8-----10-------5------5----8-----7-------------
E-----------------6-----8----------------------------------------

Verse
E----------------------------------------------------------------
B----------------------------------------------------------------
G-77777777------------------77777777--10101010--9999-------------
D-77777777--8888--10101010--77777777--10101010--9999-------------
A-55555555--8888--10101010--55555555--8-8-8-8---7777-------------
E-----------6666--8-8-8-8----------------------------------------

Chorus
E------------------------------
B------------------------------
G------------------9999--8888--
D--9999--11111111--9999--8888--
A--9999--11111111--7777--6666--
E--7777--9-9-9-9---------------

Bridge:
E-----------------------------------------------------------------------
B-----------------------------------------------------------------------
G--7------7-------------------------------7------7----10101010----9999--
D--7------7-------8888-----10101010-------7------7----10101010----9999--
A--5------5-------8888-----10101010-------5------5----8-8-8-8-----7777--
E-----------------6666-----8-8-8-8--------------------------------------

Order:
Intro: x4
Verse: x4
Chorus: x4
Verse: x4
Chorus: x4
Verse: x4
Bridge: x1
Chorus: x4
Verse: x4
Chorus: x4