Stop Censorship
 
 

 
 1-9 a b c d e f g h i j k l m n o p q r s t u v w x y z
   Casualties - Society/s Fodder Tab    

Society`s Fodder - Casualties

intro
(let ring)
e|--------------------------------|
B|--------------------------------|
G|-------------------(9)----------|
D|-9-----5-----7----9(9)9--12--11-|
A|-9-----5-----7----9---9--12--11-|
E|-7-----3-----5----7---7--10---9-|

Verse
e|--------------------------------|
B|--------------------------------|
G|--------------------------------|
D|-9-----5-----7----9---9--12--11-|
A|-9-----5-----7----9---9--12--11-|
E|-7-----3-----5----7---7--10---9-|

Chorus
e|--------------------------------------------------|
B|--------------------------------------------------|
G|--------------------------------------------------|
D|--7-7-7-7--11-11-11-11--12-12-12-12---11-11-11-11-|
A|--7-7-7-7--11-11-11-11--12-12-12-12---11-11-11-11-|
E|--5-5-5-5---9-9-9-9--9--10-10-10-10----9--9--9--9-|