Stop Censorship
 
 

 
 1-9 a b c d e f g h i j k l m n o p q r s t u v w x y z
   Casualties - The Oi Song Tab    



Intro/Chorus/Verse
-----------------------------------------------------------
-----------------------------------------------------------
11-11-11-11------------------------------------------------
11-11-11-11-9-9-11-11--------------------------------------
9--9--9--9--9-9-11-11--------------------------------------
------------7-7-9--9---------------------------------------
Bridge
-----------------------------------------------------------
-----------------------------------------------------------
11--11------------------------------11-11-11-11------------
11--11-9-11----repeat-a-bunch-then--11-11-11-11-9-11-------
9---9--9-11-------------------------9--9--9--9--9-11-------
-------7-9--------------------------------------7-9--------

Weird Solo Thingy
--18--18--18--18--18-18-18-18------------------------------
18--18--18--18--18-----------------------------------------
-----------------------------------------------------------
-----------------------------------------------------------
-----------------------------------------------------------
-----------------------------------------------------------
Outro
--18--18-18------------------------------------------------
18--18-----------------------------------------------------
-----------------------------------------------------------
-----------------------------------------------------------
-----------------------------------------------------------
-----------------------------------------------------------

End On
-------
-------
11-----
11-----
9------
-------

Order
intro
verse
chorus
verse
solo
verse
chorus
bridge
end
outro