Stop Censorship
 
 

 
 1-9 a b c d e f g h i j k l m n o p q r s t u v w x y z
   Casualties - The Oi Song Tab    

intro+verse+chorus:
e|-----------------------|
b|-----------------------|
g|-11-11-11-11-----------|
d|-11-11-11-11-9-9-11-11-|
a|-9--9--9--9--9-9-11-11-|
E|-------------7-7-9--9--|

solo:
e|--------------------------------------|
b|--7-7-7-7-7-7-7-7-7-7-7-7-7-7---------|
g|-7-7-7-7-7-7-7-7-7-7-7-7-7-7-7^7^7^7^-|
d|--------------------------------------|
a|--------------------------------------|
E|--------------------------------------|

filling:
e|---------|
b|---------|
g|-11------|
d|-11-9-11-|
a|-9--9-11-|
E|----7-9--|

end solo:
e|-------|
b|--7-7--|
g|-7-7-7-| let ring
d|-------|
a|-------|
E|-------|

order:
drum intro
bass begins
intro
verse
chorus
verse
chorus
solo
intro
verse
chorus
filling
intro
end solo