Stop Censorship
 
 

 
 1-9 a b c d e f g h i j k l m n o p q r s t u v w x y z
   Casualties - Two Faced Tab    

intro part 1
e|---------------------------------------------------------------------------|
B|---------------------------------------------------------------------------|
G|-7-7-7-7-7-7-7-7--5-5-5-5-5-5-5-5--4-4-4-4-4-4-4-4--5-5-5-5-5-5-5-5--------|
D|-7-7-7-7-7-7-7-7--5-5-5-5-5-5-5-5--4-4-4-4-4-4-4-4--5-5-5-5-5-5-5-5--------|
A|-5-5-5-5-5-5-5-5--3-3-3-3-3-3-3-3--2-2-2-2-2-2-2-2--3-3-3-3-3-3-3-3--------|
E|---------------------------------------------------------------------------|

intro part 2
e|---------------------------------------------------------------------------|
B|---------------------------------------------------------------------------|
G|-7--12--11-9-5---12-11-9-4-------------------------------------------------|Repeat a bunch
D|-7--12--11-9-5---12-11-9-4-------------------------------------------------|of times
A|-5--10--9--7-3---10-9--7-2-------------------------------------------------|
E|---------------------------------------------------------------------------|

intro part 3
e|---------------------------------------------------------------------------|
B|---------------------------------------------------------------------------|
G|-5-5-5-5--7-7-7-7--5-5-5-5--12-12-12-12--7-7-7-7--5-5-5-5--12-12-12-12-----|
D|-5-5-5-5--7-7-7-7--5-5-5-5--12-12-12-12--7-7-7-7--5-5-5-5--12-12-12-12-----|
A|-3-3-3-3--5-5-5-5--3-3-3-3--10-10-10-10--5-5-5-5--3-3-3-3--10-10-10-10-----|
E|---------------------------------------------------------------------------|

all verses
e|---------------------------------------------------------------------------|
B|---------------------------------------------------------------------------|
G|-12-12-12-12--7-7-7-7--5-5-5-5--12-12-12-12--------------------------------|
D|-12-12-12-12--7-7-7-7--5-5-5-5--12-12-12-12--------------------------------|
A|-10-10-10-10--5-5-5-5--3-3-3-3--10-10-10-10--------------------------------|
E|---------------------------------------------------------------------------|

Chourus (same as verse)!!!!!!!
e|---------------------------------------------------------------------------|
B|---------------------------------------------------------------------------|
G|---------------------------------------------------------------------------|
D|---------------------------------------------------------------------------|
A|---------------------------------------------------------------------------|
E|---------------------------------------------------------------------------|

Bridge into all verses
e|---------------------------------------------------------------------------|
B|---------------------------------------------------------------------------|
G|-12-12-12-12--7-7-7-7--5--9--7--12-12-12-12--7-----------------------------|
D|-12-12-12-12--7-7-7-7--5--9--7--12-12-12-12--7-----------------------------|
A|-10-10-10-10--5-5-5-5--3--7--5--10-10-10-10--5-----------------------------|
E|---------------------------------------------------------------------------|

solo
e|-10-10-10-10--5-5-5-5--3-3-3-3--10-10-10-10--------------------------------|
B|---------------------------------------------------------------------------|
G|---------------------------------------------------------------------------|
D|---------------------------------------------------------------------------|
A|---------------------------------------------------------------------------|
E|---------------------------------------------------------------------------|