Stop Censorship
 
 

 
 1-9 a b c d e f g h i j k l m n o p q r s t u v w x y z
   Casualties - Unknown Soldier Tab    

The Casualties - "Unknown Soldier"

Intro
e|--------------------------
B|--------------------------
G|--------------------------
D|-10---12-13--12-8----10--- Play twice
A|-10---------------10------
E|--------------------------

e|---------------------------------------
B|---------------------------------------
G|---------------------------------------
D|-10--12-13-12-8-12-15-13-12-10----------
A|-10-----------------------------10-8-10-
E|---------------------------------------

e|-------------------------------------------
B|-------------------------------------------
G|-------------------------------------------
D|-10--12-13-12-8-12-15-17-15-13-12-13-12-10-
A|-10----------------------------------------
E|-------------------------------------------

Verse/Chorus
e|-------------------------------------------------------------
B|-------------------------------------------------------------
G|-5--5555555-78-8888888-7-------------------------------------
D|-5--5555555-78-8888888-7-8-8888888--8--10--10101010101010--10-
A|-3--3333333-56-6666666-5-8-8888888--8--10--10101010101010--10-
E|-------------------------6-6666666--6---8---8-8-8-8-8-8-8---8-

Bridge
e|---------------------------------
B|---------------------------------
G|---------------------------------
D|---------------------------------
A|-3-33-3-5-6/10/8-5-5-5/6/5-5-3-1-
E|---------------------------------

Solo
e|-------------------------------------------------------
B|-------------------------------------------------------
G|-------------------------------------------------------
D|---10-101010-12-13/12/13/12-10-8-888-10-13/12/13/12-10-
A|-------------------------------------------------------
E|-------------------------------------------------------

e|-------------------------------------------------------------
B|-------------------------------------------------------------
G|----------------------------------12/10/12/10--12/10----------
D|---10-101010--12--13/12/13/12-10---------------------13-12/10-
A|-------------------------------------------------------------
E|-------------------------------------------------------------

After Solo (palm mute = ......)
e|------------------------------------------------------------
B|------------------------------------------------------------
G|-5-5555555-78-8888888-7-------------------------------------
D|-5-5555555-78-8888888-78-8888888--8--10--10101010101010--10-
A|-3-3333333-56-6666666-58-8888888--8--10--10101010101010--10-
E|---.......----.......--6-6666666--6---8---8-8-8-8-8-8-8---8-
....... .............
e|------------------------------------------------------------
B|------------------------------------------------------------
G|-5-5555555-78-8888888-7-------------------------------------
D|-5-5555555-78-8888888-78-8888888--8--10--10101010101010--10-
A|-3-3333333-56-6666666-58-8888888--8--10--10101010101010--10-
E|-----------------------6-6666666--6---8---8-8-8-8-8-8-8---8-