Stop Censorship
 
 

 
 1-9 a b c d e f g h i j k l m n o p q r s t u v w x y z
   Casualties - Unknown Soldier Tab    

Band: The Casualties.
Song: Unknown Soldier.
Album: On the Front Line.

Intro
E|--------------------------|
B|--------------------------|
G|--------------------------|
D|-10---12-13--12-8----10---|
A|-10---------------10------|
E|--------------------------|

E|--------------------------|
B|--------------------------|
G|--------------------------|
D|---10---12-13--12-8----10-|
A|10-10---------------10----|
E|--------------------------|

E|---------------------------------------------|
B|---------------------------------------------|
G|---------------------------------------------|
D|----10----10-12-13-12-8-12-15-13-12-10-------|
A|-10-10-10----------------------------10-8-10-|
E|---------------------------------------------|

E|---------------------------------------------------|
B|---------------------------------------------------|
G|---------------------------------------------------|
D|----10----10-12-13-12-8-12-15-17-15-13-12-13-12-10-|
A|-10-10-10------------------------------------------|
E|---------------------------------------------------|

Verse/Chorus
e|--------------------------------------------------------------|
B|--------------------------------------------------------------|
G|-5--5555555-78-8888888-7--------------------------------------|
D|-5--5555555-78-8888888-7-8-8888888--8--10--10101010101010--10-|
A|-3--3333333-56-6666666-5-8-8888888--8--10--10101010101010--10-|
E|-------------------------6-6666666--6---8---8-8-8-8-8-8-8---8-|


(This part was wrong.)
Bridge
E|-----------------------------------|
B|-----------------------------------|
G|-5-5-5-7-8-8-12-10-7-7-7-8-7-7-5-3-|
D|-----------------------------------|
A|-3-3-3-5-6-6-10--8-5-5-5-6-5-5-3-1-|
E|-----------------------------------|


Solo
E|-------------------------------------------------------|
B|-------------------------------------------------------|
G|-------------------------------------------------------|
D|---10~-12-13/12/13/12-10-8~-10-13/12/13/12-10----------|
A|-------------------------------------------------------|
E|-------------------------------------------------------|

E|-------------------------------------------------------|
B|-------------------------------------------------------|
G|---------------------------12/10/12/10/12/10-----------|
D|---10~-12--13/12/13/12-10--------------------13-12/10~-|
A|-------------------------------------------------------|
E|-------------------------------------------------------|

After Solo (palm muted.)
E|------------------------------------------------------------|
B|------------------------------------------------------------|
G|-5-5555555-78-8888888-7-------------------------------------|
D|-5-5555555-78-8888888-78-8888888--8--10--10101010101010--10-|
A|-3-3333333-56-6666666-58-8888888--8--10--10101010101010--10-|
E|---.......----.......--6-6666666--6---8---8-8-8-8-8-8-8---8-|
....... .............
E|------------------------------------------------------------|
B|------------------------------------------------------------|
G|-5-5555555-78-8888888-7-------------------------------------|
D|-5-5555555-78-8888888-78-8888888--8--10--10101010101010--10-|
A|-3-3333333-56-6666666-58-8888888--8--10--10101010101010--10-|
E|-----------------------6-6666666--6---8---8-8-8-8-8-8-8---8-|

Ending:
E|---------------------|
B|---------------------|
G|-5~-5------------555-|
D|-5~--5-----------555-|
A|-3~------6--1-3--333-|
E|---------------------|

THE ORDER`S BELOW!



Oh oh oh

Joe is out of school, didn`t ***ing ask for much
couldn`t get a job, the marines his last hope
down at the frontline, with a gun not a toy
kill many men, not asking what for

oh oh oh

Joe`s family,the comrades next to him
die one by on, his luck is running out
Joe wrote back hom, his parents unemployed
the rich is ***ing laughing, profits from the war

oh oh oh

BRIDGE

Joe is off to die, for another senseless war
no arms, no legs - his mother cries at home
joey wears the flag, so proud to fight for us
and for the government, that doesn`t give a ***

oh oh oh
oh oh oh

SOLO

Joe is off to die, for another senseless war
no arms, no legs - his mother cries at home
joey wears the flag, so proud to fight for us
and for the government, that doesn`t give a ***

Marching to the left, marching to the right
marching on the frontline, what a ***ing sight
Marching to the left, marching to the right
marching on the frontline, what a way to die

Joey, Joey, Joey tell me what you see now
Joey, Joey, Joey Please com back home now

Marching to the left, marching to the right
marching on the frontline, what a ***ing sight
Marching to the left, marching to the right
marching on the frontline, what a way to die

It`s really easy to figure out!


-KT.-