Stop Censorship
 
 

 
 1-9 a b c d e f g h i j k l m n o p q r s t u v w x y z
   Casualties - Victims Tab    

Victims - Casualties

Intro 2x 4x
E|------------------------------|----------------------
B|------------------------------|----------------------
G|-11xxxxx-7xxxxx---------------|-11xxx-7xxx-----------
D|-11xxxxx-7xxxxx-9xxxxx-7xxxxxx|-11xxx-7xxx-9xxx-7xxx-
A|--9xxxxx-5xxxxx-9xxxxx-7xxxxxx|--9xxx-5xxx-9xxx-7xxx-
E|----------------7xxxxx-5xxxxxx|------------7xxx-5xxx-
4x 2x
E|----------------------------------|--------------
B|----------------------------------|--------------
G|-11xx-11xx—7xx—7xx----------------|-11x-7x-------
D|-11xx-11xx-7xx-7xx-9xx-9xx-7xx-7xx|-11x-7x-9x-7x-
A|--9xx—-9xx—5xx-5xx-9xx-9xx-7xx-7xx|--9x-5x-9x-7x-
E|-------------------7xx-7xx-5xx-5xx|--------7x-5x-

Verse 4x
E|---------------
B|---------------
G|-11-7----------
D|-11-7-9-7-9-11-
A|--9-5-9-7-9-11-
E|------7-5-7--9-

Chorus (We are all…) 4x
E|--------------
B|--------------
G|-11-14-11-9---
D|-11-14-11-9-7-
A|--9-12--9-7-7-
E|------------5-

Before Solo 4x
E|----------
B|----------
G|-11-7-----
D|-11-7-9-7-
A|--9-5-9-7-
E|------7-5—

Solo P=pull up
e|----------------------------------P------------------------------------------
B|-12--10-9-8--9-11-9-11-9-11-9-11-11--11--9-8-------------------------------P-
G|---------------------------------------------11-9-11-9-----------9-11-9-11-9-
D|-------------------------------------------------------9-11-9-11-------------
A|-----------------------------------------------------------------------------
E|-----------------------------------------------------------------------------