Stop Censorship
 
 

 
 1-9 a b c d e f g h i j k l m n o p q r s t u v w x y z
   Cat Stevens - Wild World Tab    

Cat stevens - Wild world
tabed by Keith Maclean



Verse 1
E-0-0--2-2--3-3-------1-1--1-1--------------|
B-1-1--1-1--0-0--5-5--1-1--3-3------------0-|
G-0-0--2-2--0-0--4-4--2-2--2-2--1-1-1-1-2---|2 times
D-2-2--0-0--0-0--5-5--3-3--0-0--2-2-2-2-----|
A-----------2-2--0-0------------2-2-2-2-----|
E-----------3-3-----------------------------|


E-0-0--2-2--3-3-------1-1--1-1-------3----||----3---3---3-0-|
B-1-1--1-1--0-0--5-5--1-1--3-3-------0----||---0---0---00-0-|
G-0-0--2-2--0-0--4-4--2-2--2-2--1-1--0----||--0---0---0-----|
D-2-2--0-0--0-0--5-5--3-3--0-0--2-2--0----||-3---2---0------|
A-----------2-2--0-0------------2-2--2----||----------------|
E-----------3-3----------------------3----||----------------|

Chorus

E-0--3-3-3-3-3--0-0-||-----------------|
B-1--0-0-0-0-0--1-1-||-1-0-------------|--------------|
G-2--0-0-0-0-0--2-2-||----2-0----------| |
D-2--0-0-0-0-0--3-3-||-------3-2-0-----| |
A----2-2-2-2-2------||-------------3-0-| |
E----3-3-3-3-3------||-----------------| |
| 2 Times
|
E-3--0-0-0-0-0-0--0-0-||-------------------| |
B-0--1-1-1-1-1-1--1-1-||-------------------| |
G-0--2-2-2-2-2-2--0-0-||-------------------| |
D-0--3-3-3-3-3-3--2-2-||-------------------|----------|
A-2-------------------||-------0-2-2-2-0---|
E-3-------------------||-3-3-3-----------3-|

verse 1(3 times)
chorus (2 times)
verse 1(2 times)
chorus (4 times)

Any problems email me at keithmaclean15@hotmail.com