Stop Censorship
 
 

 
 1-9 a b c d e f g h i j k l m n o p q r s t u v w x y z
   Cephalic Carnage - Fortuitous Oddity Tab    

Band: Cephalic Carnage
Album: Lucid Interval
Song: Fortuitous Oddity

Copyright Relapse Records 2002
Version 1.0 - January 12, 2004

Transcribed By: Joe Holly
E-mail: rivers_of_gore666@yahoo.com

. - palm mute / - slide up to
- slide down to ~ - vibrato
h - hammer on b - Bend
p - pull off Suffixes for bend
t - tap f - full bend h - half bend
ph - pinched harmonic q - quarter bend t - tap bend
* - see comment ^ - Hold bend r release bend
x - Stuccatto ~ - vibrato bend
, - slight palm mute () - ghost note, sustained note
" - tremolo note <> - Trill

Tuning: B E A D G B

Riff 1
|-------------------|
|-------------------|
|-------------------|
|-------------------|
|-------------------|
|-1"-2"-1"-2"-4"-2"-|
. . . . . .

Riff 2A
|---------------|
|---------------|
|---------------|
|---------------|
|-3/43--4/64--|
|-1/21--2/42--|

Riff 2B
|-------------|
|-------------|
|-------------|
|-------------|
|-4--6--3-3-4-|
|-2--4--1-1-2-|
. . . . .

Riff 3A
|-----------------------------------------------------|
|-----------------------------------------------------|
|-----------------------------------------------------|
|---------------------------------------------3-3-----|
|-3/43--4/64--3/43----------4/5-4--------------4-4-|
|-1/21--2/42--1/21--1-1-3-3-2/32--3-3-1-1---------|
. . . . . . . . . . . .

Riff 3B
|-----------------|
|-----------------|
|-----------------|
|---------3-3-----|
|-------------4-4-|
|-3-3-1-1---------|
. . . . . . . .

Riff 2A
Riff 2B