Stop Censorship
 
 

 
 1-9 a b c d e f g h i j k l m n o p q r s t u v w x y z
   Cephalic Carnage - Lucid Interval Tab    

Band: Cephalic Carnage
Album: Lucid Interval
Song: Lucid Interval

Copyright Relapse Records 2002

Transcribed By: Joe Holly
E-mail:

- tremolo note x - muted string
. - palm mute b - bend
- slide down ~ - vibrato
/ - slide up t - tap
h - hammer on ph pinched harmonic
p - pull off * - see comment

Tuning: B E A D G B

Riff 1
guitar 1
|-------------------------------------------------------------------------|
|-------------------------------------------------------------------------|
|----------------------------------------------------------------14-------|
|-------16----16----------16-17-16----------16----16----------16----16----|
|----14----14----14----14----------14----14----14----14----14----------14-|
|-12----------------12----------------12----------------12----------------|
. . . . . . . . . . . .

|-------------------------------------------------------------------------|
|-------------------------------------------------------------------------|
|----------------------------------------------------------------13-------|
|-------15----15----------15-16-15----------15----15----------15----15----|
|----13----13----13----13----------13----13----13----13----13----------13-|
|-11----------------11----------------11----------------11----------------|
. . . . . . . . . . . .

guitar 2
|-------------------------------------|
|-------------------------------------|
|-------------------------------------|
|-15-------------------------------15-|
|-13-------------------------------13-|
|-13-------------------------------13-|

|-------------------------------------|
|-------------------------------------|
|-------------------------------------|
|-14-------------------------------14-|
|-12-------------------------------12-|
|-12-------------------------------12-|

|-------------------------------------|
|-------------------------------------|
|-------------------------------------|
|-15-------------------------------15-|
|-13-------------------------------13-|
|-13-------------------------------13-|

|-------------------------------------|
|--------------16-19-16---------------|
|------------17---------17------------|
|-14-------18-------------18-------14-|
|-12-----19-----------------19-----12-|
|-12-------------------------------12-|

Riff 2
|-------------------------------------|
|-------------------------------------|
|-------------------------------------|
|-------17/16-------16/15-------17/16-|
|----14----------13----------14-------|
|-12----------11----------12----------|
. . . . . .

|----------------------------------------------------------------|
|----------------------------------------------------------------|
|----------------------------------------------------------------|
|-------17/16-------16----16----16----16/17----17/18----18-18/20-|
|----14----------14----14----14----14-------15-------16----16/18-|
|-12----------12-------------------------------------------------|
. . . . . . . . .

Riff 3
|-----------------------|
|-----------------------|
|-----------------------|
|---------3-3-----3-----|
|-----2-3---------1-----|
|-0-0---------0-0-------|
. . . . . . . .

|-----------------------------------|
|-----------------------------------|
|-----------------------------------|
|---------3-3-----------15-15-------|
|-----2-3---------12-12-------13-13-|
|-0-0---------0-0-------------------|
. . . . . . . . . . . . . .

|-----------------------|
|-----------------------|
|-----------------------|
|---------3-3-----3-----|
|-----2-3---------1-----|
|-0-0---------0-0-------|
. . . . . . . .

|----------------------------------12*-12*-|
|--------------------------12*-12*---------|
|------------------12*-12*-----------------|
|---------3-3------------------------------|
|-----2-3----------------------------------|
|-0-0---------0-0--------------------------|
. . . . . . . .

* = harmonic

|-----------------------------------|
|-----------------------------------|
|-----------------------------------|
|---------3-3---------3-3-----3-----|
|-----2-3---------2-3---------1-----|
|-0-0---------0-0---------0-0-------|
. . . . . . . . . . . . . .

|-----------------------------------|
|-----------------------------------|
|-----------------------------------|
|---------3-3-----------15-15-------|
|-----2-3---------12-12-------13-13-|
|-0-0---------0-0-------------------|
. . . . . . . . . . . . . .

|-----------------------|
|-----------------------|
|-----------------------|
|---------3-3-----3-----|
|-----2-3---------1-----|
|-0-0---------0-0-------|
. . . . . . . .

|--------------------------------|
|--------------------------------|
|-------------------14-----14*b--|
|---------3-3----16----17--------|
|-----2-3-----14-----------------|
|-0-0----------------------------|
. . . . . .

* = artificial harmonic

|------------------------------------------------------------------|
|------------------------------------------------------------------|
|------------------------------------------------------------------|
|-------16-16------------------15-15------------15---------3-3-----|
|----14------------------13-13-------13-13------13-------------1-1-|
|-12---------------11-11------------------------13-----0-0---------|
. . . . . . . . . . . . . . . . . .

Riff 4 (part with alternating guitars)
guitar 1
|---------------------|
|---------------------|
|---------------------|
|---------------------|
|------16"--14"--17"--|
|-14"-----------------|
. . . .

guitar 2
|---------------------|
|---------------------|
|---------------------|
|-15"--14"--15"-------|
|----------------12"--|
|---------------------|
. . . .

guitar 1
|---------------------|
|---------------------|
|---------------------|
|---------------------|
|------16"--14"--17"--|
|-14"-----------------|
. . . .

guitar 2
|---------------------|
|---------------------|
|---------------------|
|-15"--14"--15"-------|
|----------------12"--|
|---------------------|
. . . .

guitar 1
|---------------------|
|---------------------|
|---------------------|
|---------------------|
|------16"--14"--17"--|
|-14"-----------------|
. . . .

guitar 2
|-------------------------------|
|-------------------------------|
|-------------------------------|
|-15"--14"--15"-----------------|
|--------------------------14"--|
|----------------13"--12"-------|
. . . . .

guitar 1
|---------------------|
|---------------------|
|---------------------|
|-16"-------15"-------|
|------14"------------|
|----------------13"--|
. . . .

guitar 2
|---------------------|
|---------------------|
|---------------------|
|-15"-----------------|
|------15"-------14"--|
|-----------12"-------|
. . . .

guitar 1
|---------------------|
|---------------------|
|---------------------|
|------15"-------16"--|
|-----------14"-------|
|-13"-----------------|
. . . .

guitar 2
|---------------------|
|---------------------|
|---------------------|
|-15"-----------------|
|------15"-------14"--|
|-----------12"-------|
. . . .

guitar 1
|---------------------|
|---------------------|
|---------------------|
|-16"-------15"-------|
|------14"------------|
|----------------13"--|
. . . .

Riff 5A
|---------------------------------|
|---------------------------------|
|---------------------------------|
|-----------------15"-14"-15"-----|
|-----15"-14"-15"-------------15"-|
|-13"-----------------------------|

Riff 5B
|-----------------------------------------------------------------|
|-----------------------------------------------------------------|
|-----------------------------------------------------------------|
|-----------------13"-12"-13"---------------------12"-11"-12"-----|
|-----13"-12"-13"-------------13"-----12"-11"-12"-------------12"-|
|-11"-----------------------------10"-----------------------------|

Riff 6A (clean)
|---------------------------------|
|---------------------------------|
|---------------------------------|
|-----------------15"-14"-15"-----|
|-----15"-14"-15"-------------15"-|
|-13"-----------------------------|

Riff 6B
|--------------------------------------------------------|
|--------------------------------------------------------|
|--------------------------------------------------------|
|---------------------------15"--------------------------|
|-----14"---------------14"-----14"---------14"----------|
|-12"---------------12"-------------12"-12"--------------|

|-------------------|
|-------------------|
|-------------------|
|-----15"--|
|---------14"----------|
|-12"---------12"----|

Riff 7
|------------------------------|
|------------------------------|
|------------------------------|
|-----16"------------------15"-|
|---------14"------------------|
|-12"---------12"--------------|
. . .

|------------------------------|
|------------------------------|
|------------------------------|
|-----16"------------------15"-|
|---------14"------------------|
|-12"---------12"--------------|
. . .

|------------------------------|
|------------------------------|
|------------------------------|
|-----16"---------15"----------|
|---------14"------------------|
|-12"---------12"--------------|
. . .

|---------------------------------|
|---------------------------------|
|---------------------------------|
|-----16"-------------15"---------|
|---------14"-----------------13"-|
|-12"---------12"-12"-----11"-----|
. . . . . .

|-------------------------------------------------------|
|-------------------------------------------------------|
|-------------------------------------------------------|
|---------14"--------13"-----14"--------16"---------15"-|
|-------------------------------------------------------|
|-10"---------9"---------10"-----12---------11"---------|
. . . . .

|--------------------------------|
|--------------------------------|
|--------------------------------|
|---------14"--------13"-----14"-|
|--------------------------------|
|-10"---------9"---------10"-----|
. . .

Riff 8A
|---------------------------------|
|---------------------------------|
|---------------------------------|
|---------------------------------|
|---------14"---------14"-----15"-|
|-12"---------12"---------12"-----|
. . . . . . . .

|---------------------------------|
|---------------------------------|
|---------------------------------|
|---------------------------------|
|---------14"---------14"---------|
|-12"---------12"---------12"-11"-|
. . . . . . . .

Riff 8B
|----------------------------------------------|
|----------------------------------------------|
|-------------14-14-------------14-14-------14-|
|-11-11-11-11-------11-11-11-11-------12-12----|
|----------------------------------------------|
|----------------------------------------------|
. . . . . . . . . . . . . . .

Riff 8C
|-----------------------------------|
|--------14*--12*-------------------|
|------------------12*--------------|
|--0--0-----------------14------13--|
|---------------------------11------|
|-----------------------------------|

* = artificial harmonic

Riff 8A

Riff 9
|-----------------------------------|
|-----------------------------------|
|-----------------------------------|
|-----------------------------------|
|-------------8-8-7"----------8-8-7-|
|-7"--------------------------------|
. .

|-----------------------------------|
|-----------------------------------|
|-----------------------------------|
|-----------------------------------|
|-------------6-6-5"----------6-6-5-|
|-5"--------------------------------|
. .

Riff 9B
|--------------------------------------------------------------------|
|--------------------------------------------------------------------|
|--------------------------------------------------------------------|
|--------------------------------------------------------------------|
|-------6-6-5-------------5-5-4--------------4-4-3-------------3-3-2-|
|-5-----------5-----4-----------4-----3------------3-----2-----------|

|--------------------------------------------------------------------|
|--------------------------------------------------------------------|
|--------------------------------------------------------------------|
|-------6-6-5-------------5-5-4--------------4-4-3-------------3-3-2-|
|-5-----------5-----4-----------4-----3------------3-----2-----------|
|--------------------------------------------------------------------|

|--------------------------------------------------------------------|
|--------------------------------------------------------------------|
|-------6-6-5-------------5-5-4--------------4-4-3-------------3-3-2-|
|-5-----------5-----4-----------4-----3------------3-----2-----------|
|--------------------------------------------------------------------|
|--------------------------------------------------------------------|

|--------------------------------------------------------------------|
|-------6-6-5-------------5-5-4--------------4-4-3-------------3-3-2-|
|-5-----------5-----4-----------4-----3------------3-----2-----------|
|--------------------------------------------------------------------|
|--------------------------------------------------------------------|
|--------------------------------------------------------------------|

Riff 10A
guitar 1
|-------------------------------------------------------------------|
|-------------------------------------------------------------------|
|-------------------------------------------------------------------|
|-16--16--16--16--16--16--16--16--16--16--16--16--16-16-16-16-16-16-|
|-------------------------------------------------------------------|
|-------------------------------------------------------------------|
. . . . . . . . . . . . . . . . . .

|-------------------------------------------------------------------|
|-------------------------------------------------------------------|
|-------------------------------------------------------------------|
|-15--15--15--15--15--15--15--15--15--15--15--15--15-15-15-15-15-15-|
|-------------------------------------------------------------------|
|-------------------------------------------------------------------|
. . . . . . . . . . . . . . . . . .

guitar 2
|-------------------------------------------------------------------|
|-------------------------------------------------------------------|
|-------------------------------------------------------------------|
|-16--------------------------/19----15---------------------/22-----|
|--X----------------------------------x-----------------------------|
|-14--------------------------/17----13---------------------/20-----|


Riff 10B
guitar1
|-------------------------------------------------------------------|
|-------------------------------------------------------------------|
|-------------------------------------------------------------------|
|-16--16--16--16--16--16--16--16--16--16--16--16--16-16-16-16-16-16-|
|-------------------------------------------------------------------|
|-------------------------------------------------------------------|
. . . . . . . . . . . . . . . . . .

|-------------------------------------------------------------------|
|-------------------------------------------------------------------|
|-------------------------------------------------------------------|
|-------------------------------------------------------------------|
|-16--16--16--16--16--16--16--16--15--15--15--15--15-15-15-15-15-15-|
|-------------------------------------------------------------------|
. . . . . . . . . . . . . . . . . .

guitar 2
|-------------------------------------|
|-------------------------------------|
|-------------------------------------|
|-16--------------------------/19-----|
|--X----------------------------------|
|-14--------------------------/17-----|

|-------------------------------------------------------------------|
|-------------------------------------------------------------------|
|-------------------------------------------------------------------|
|-------------------------------------------------------------------|
|-16--16--16--16--16--16--16--16--15--15--15--15--15-15-15-15-15-15-|
|-------------------------------------------------------------------|
. . . . . . . . . . . . . . . . . .

Riff 10C
guitar 1
|-------------------------------------------------------------------|
|-------------------------------------------------------------------|
|-------------------------------------------------------------------|
|-16--16--16--16--16--16--16--16--16--16--16--16--16-16-16-16-16-16-|
|-------------------------------------------------------------------|
|-------------------------------------------------------------------|
. . . . . . . . . . . . . . . . . .

|-------------------------------------------------------------------|
|-------------------------------------------------------------------|
|-------------------------------------------------------------------|
|-15--15--15--15--15--15--15--15--15--15--15--14--14-14-14-13-13-13-|
|-------------------------------------------------------------------|
|-------------------------------------------------------------------|
. . . . . . . . . . . . . . . . . .

guitar 2
|-------------------------------------------------------------------|
|-------------------------------------------------------------------|
|-------------------------------------------------------------------|
|-------------------------------------------------16-16-16-16-16-16-|
|-------------------------------------------------------------------|
|-14--14--14--14--14--14--14--14--14--14--14--14--------------------|
. . . . . . . . . . . . . . . . . .

|-------------------------------------------------------------------|
|-------------------------------------------------------------------|
|-------------------------------------------------------------------|
|-------------------------------------------------------------------|
|-15--15--15--15--15--15--15--15--15--15--15--14--14-14-14-13-13-13-|
|-------------------------------------------------------------------|
. . . . . . . . . . . . . .

Riff 10D
|-------------------------------------------------------------------|
|-------------------------------------------------------------------|
|-------------------------------------------------------------------|
|-16--16--16--16--16--16--16--16--16--16--16--16--16-16-16-16-16-16-|
|-------------------------------------------------------------------|
|-------------------------------------------------------------------|
. . . . . . . . . . . . . . . . . .

|-------------------------------------------------------------------|
|-------------------------------------------------------------------|
|-----------------------------------------------14------14*b--------|
|---------12-------------11-----------------16------17--------------|
|-----14-----14------13-----13------14--14--------------------------|
|-12-------------11-------------12----------------------------------|
. . . . . .

* = artificial harmonic

|--------------------|
|--------------------|
|--------------------|
|--------------------|
|--------14-14-------|
|-12-12--------------|
. . . .

Riff 11A
|-------------------------------------------------|
|-------------------------------------------------|
|-------------------------------------------------|
|-------16----15-------16----15-------16-------15-|
|-------------------------------------------------|
|-12-12----12----12-12----12----12-12----12-12----|
. . . . . . . . . .

|-----------------------------------------------------|
|-----------------------------------------------------|
|-----------------------------------------------------|
|-----------------------------------------------------|
|-15--------13--------14---------12-------------------|
|-13--13-13-11--11-11-12--12-12--10--10-10--11"--10"--|
. . . . . . . . . .

Riff 11B
|-------------------------------------|
|-------------------------------------|
|-14*b--------------12*b--------------|
|-------------------------------------|
|----------14-14-14----------14-14-14-|
|-------------------------------------|
. . . . . .

* = artificial harmonic

|---------------------------------|
|---------------------------------|
|---------------------------------|
|-t15p11p8-------------------11p8-|
|----------t15p11p8---------------|
|-------------------t15p11p8------|

Riff 11C
|-----------------------------------------|
|-------------------------------0h8h11t15-|
|---------------------0h8h11t15-----------|
|-----------0h8h11t15---------------------|
|-0h8h11t15-------------------------------|
|-----------------------------------------|

|-----------------------------------------------------|
|-----------------------------------------------------|
|-----------------------------------------------------|
|-----------------------------------------------------|
|-15--------13--------14---------12-------------------|
|-13--13-13-11--11-11-12--12-12--10--10-10--11"--10"--|
. . . . . . . . . .

Riff 11A
Riff 11B
Riff 11C
Riff 11B
Riff 11A
Riff 11C

Riff 11D
guitar 1
|-------------------------------------------------------------------|
|-------------------------------------------------------------------|
|-------------------------------------------------------------------|
|-16--16--16--16--16--16--16--16--16--16--16--16--16-16-16-16-16-16-|
|-------------------------------------------------------------------|
|-------------------------------------------------------------------|
. . . . . . . . . . . . . . . . . .

|-----------------|
|-----------------|
|-----------------|
|-15--15--15--15--|
|-----------------|
|-----------------|
. . . .

guitar 2
|-------------------------------------------------------------------|
|-------------------------------------------------------------------|
|-------------------------------------------------------------------|
|-------------------------------------------------16-16-16-16-16-16-|
|-------------------------------------------------------------------|
|-14--14--14--14--14--14--14--14--14--14--14--14--------------------|
. . . . . . . . . . . . . . . . . .

|-----------------|
|-----------------|
|-----------------|
|-----------------|
|-15--15--15--15--|
|-----------------|
. . . .

Riff 11C

Riff 11E
|-------------------------------------------------|
|-------------------------------------------------|
|-------------------------------------------------|
|-------16----15-------16----15-------16-------15-|
|-------------------------------------------------|
|-12-12----12----12-12----12----12-12----12-12----|
. . . . . . . . . .

|---------------------------------------|
|---------------------------------------|
|---------------------------------------|
|-----13---12-----13---12-----13-----12-|
|---------------------------------------|
|-9-9----9----9-9----9----9-9----9-9----|
. . . . . . . . . .

|-----------------------------------------------------|
|-----------------------------------------------------|
|-----------------------------------------------------|
|-----------------------------------------------------|
|-15--------13--------14---------12-------------------|
|-13--13-13-11--11-11-12--12-12--10--10-10--11"--10"--|
. . . . . . . . . .

Riff 11B

Riff 12A
guitar 1
|-------------------------------------------------------------------|
|-------------------------------------------------------------------|
|-------------------------------------------------------------------|
|-16--16--16--16--16--16--16--16--16--16--16--16--16-16-16-16-16-16-|
|-------------------------------------------------------------------|
|-------------------------------------------------------------------|
. . . . . . . . . . . . . . . . . .

|-------------------------------------------------------------------|
|-------------------------------------------------------------------|
|-------------------------------------------------------------------|
|-15--15--15--15--15--15--15--15--15--15--15--15--15-15-15-15-15-15-|
|-------------------------------------------------------------------|
|-------------------------------------------------------------------|
. . . . . . . . . . . . . . . . . .

guitar 2
|-------------------------------------------------------------------|
|-------------------------------------------------------------------|
|-------------------------------------------------------------------|
|-------------------------------------------------16-16-16-16-16-16-|
|-------------------------------------------------------------------|
|-14--14--14--14--14--14--14--14--14--14--14--14--------------------|
. . . . . . . . . . . . . . . . . .

|-------------------------------------------------------------------|
|-------------------------------------------------------------------|
|-------------------------------------------------------------------|
|-------------------------------------------------------------------|
|-15--15--15--15--15--15--15--15--15--15--15--15--15-15-15-15-15-15-|
|-------------------------------------------------------------------|
. . . . . . . . . . . . . .

Riff 12B
guitar 1
|-------------------------------------------------------------------|
|-------------------------------------------------------------------|
|-------------------------------------------------------------------|
|-16--16--16--16--16--16--16--16--16--16--16--16--16-16-16-16-16-16-|
|-------------------------------------------------------------------|
|-------------------------------------------------------------------|
. . . . . . . . . . . . . . . . . .

|-------------------------------------------------------------------|
|-------------------------------------------------------------------|
|-------------------------------------------------------------------|
|-15--15--15--15--15--15--15--15--15--15--15--14--14-14-14-14-14-14-|
|-------------------------------------------------------------------|
|-------------------------------------------------------------------|
. . . . . . . . . . . . . . . . . .

guitar 2
|-------------------------------------------------------------------|
|-------------------------------------------------------------------|
|-------------------------------------------------------------------|
|-------------------------------------------------16-16-16-16-16-16-|
|-------------------------------------------------------------------|
|-14--14--14--14--14--14--14--14--14--14--14--14--------------------|
. . . . . . . . . . . . . . . . . .

|-------------------------------------------------------------------|
|-------------------------------------------------------------------|
|-------------------------------------------------------------------|
|-------------------------------------------------------------------|
|-15--15--15--15--15--15--15--15--15--15--15--14--14-14-14-14-14-14-|
|-------------------------------------------------------------------|
. . . . . . . . . . . . . .

Riff 12B
guitar 1
|-------------------------------------------------------------------|
|-------------------------------------------------------------------|
|-------------------------------------------------------------------|
|-16--16--16--16--16--16--16--16--16--16--16--16--16-16-16-16-16-16-|
|-------------------------------------------------------------------|
|-------------------------------------------------------------------|
. . . . . . . . . . . . . . . . . .

|-------------------------------------------------------------------|
|-------------------------------------------------------------------|
|-------------------------------------------------------------------|
|-15--15--15--15--15--15--15--15--15--15--15--14--14-14-14-13-13-13-|
|-------------------------------------------------------------------|
|-------------------------------------------------------------------|
. . . . . . . . . . . . . . . . . .

guitar 2
|-------------------------------------------------------------------|
|-------------------------------------------------------------------|
|-------------------------------------------------------------------|
|-------------------------------------------------16-16-16-16-16-16-|
|-------------------------------------------------------------------|
|-14--14--14--14--14--14--14--14--14--14--14--14--------------------|
. . . . . . . . . . . . . . . . . .

|-------------------------------------------------------------------|
|-------------------------------------------------------------------|
|-------------------------------------------------------------------|
|-------------------------------------------------------------------|
|-15--15--15--15--15--15--15--15--15--15--15--14--14-14-14-13-13-13-|
|-------------------------------------------------------------------|
. . . . . . . . . . . . . .