Stop Censorship
 
 

 
 1-9 a b c d e f g h i j k l m n o p q r s t u v w x y z
   Cephalic Carnage - Misguided Tab    

Band: Cephalic Carnage
Album: Lucid Interval
Song: Misguided

Copyright Relapse Records 2002

Transcribed By: Joe Holly
E-mail: rivers_of_gore666@yahoo.com

. - palm mute / - slide up to
- slide down to ~ - vibrato
h - hammer on b - Bend
p - pull off Suffixes for bend
t - tap f - full bend h - half bend
ph - pinched harmonic q - quarter bend t - tap bend
* - see comment ^ - Hold bend r release bend
x - Stuccatto ~ - vibrato bend
, - slight palm mute () - ghost note, sustained note
" - tremolo note <> - Trill

Tuning: B E A D G B

Intro
Guitar 1
|-------------------------------------------------------------|
|-------------------------------------------------------------|
|-------------------------------------------------------------|
|-3/4-43-3/4-54-3/4-3/4-54-65-3/4-43-3/4-54-3/4-3/4-54-|
|-3/4-43-3/4-54-3/4-3/4-54-65-3/4-43-3/4-54-3/4-3/4-54-|
|-1/2-21-1/2-32-1/2-1/2-32-43-1/2-21-1/2-32-1/2-1/2-32-|

Guitar 2
|-------------------------------------------------------------|
|-------------------------------------------------------------|
|-------------------------------------------------------------|
|-----------------3---------------3-4-------------3/4-3/4-54-|
|-----------------3---------------3-4-------------3/4-3/4-54-|
|-----------------1---------------1-2-------------1/2-1/2-32-|

Riff 1
|---------------------------------|
|---------------------------------|
|---------------------------------|
|-3/4-43-3/4-54-3/4-3/4-54-65-|
|-3/4-43-3/4-54-3/4-3/4-54-65-|
|-1/2-21-1/2-32-1/2-1/2-32-43-|

Riff 2
|-----------------------------------------|
|-----------------------------------------|
|-----------------------------------------|
|---------4"--------7"--3"----------------|
|-----0"----------------------------------|
|-2"--------------------------------------|

riff 1

Riff 3
|-----------------|
|-----------------|
|-----------------|
|-3/5-3/4---------|
|-3/5-3/4-5-4-6-5-|
|-1/2-1/2-3-2-4-3-|
. . . .

Riff 4
|-------------------------------------|
|-------------------------------------|
|-6-----5/4-----5/6-----5-7---7---7---|
|-6-----5/5-----5/6-----5-7---7---7---|
|-4-----3/4-----3/4-----3-5---5---5---|
|-------------------------------------|

Riff 5
|-------------------------------|
|-------------------------------|
|-------------------------------|
|-6-----5/7-----5/6-----5/7-----|
|-6-----5/7-----5/6-----5/7-----|
|-4-----3/5-----3/4-----3/5-----|

Riff 4
Riff 5

Riff 6
|--------------------------------------------------|
|--------------------------------------------------|
|--------------------------------------------------|
|-5/6-----5/7-----5/6-----5/7------6-6---7-7---7-7-|
|-5/6-----5/7-----5/6-----5/7------6-6---7-7---7-7-|
|-3/4-----3/5-----3/4-----3/5------4-4---5-5---5-5-|

Riff 1

Riff 7
|-----------------|
|-----------------|
|-----------------|
|-----------------|
|-3---4---5-4-6-5-|
|-1---2---3-2-4-3-|
. . . . . .

Outro
|--------------------------------------------------|
|--------------------------------------------------|
|--------------------------------------------------|
|-2----------------------------------------------2-|
|-2----------------------------------------------2-|
|-0----------------------------------------------0-|