Stop Censorship
 
 

 
 1-9 a b c d e f g h i j k l m n o p q r s t u v w x y z
   Cephalic Carnage - Strung Out On Viagra Tab    

Band: Cephalic Carnage
Album: Perversions And The Guilt After (Anal Blast Split)
Song: Strung Out On Viagra

Copyright Nightfall/Terrorizer Records 2002

Transcribed By: Joe Holly
E-mail: rivers_of_gore666@yahoo.com

. - palm mute / - slide up to
- slide down to ~ - vibrato
h - hammer on b - Bend
p - pull off Suffixes for bend
t - tap f - full bend h - half bend
ph - pinched harmonic q - quarter bend t - tap bend
* - see comment ^ - Hold bend r release bend
x - Stuccatto ~ - vibrato bend
, - slight palm mute () - ghost note, sustained note
" - tremolo note <> - Trill

Tuning: B E A D G B

Tuning: B E A D G B

Riff 1 (5 times)
|------------------------|
|------------------------|
|------------------------|
|-7-6--------------------|
|-5-4--------------------|
|------------------------|

|-----------------------|
|-----------------------|
|-----------------------|
|--------------------2--|
|-2"-1"-0"--3"-2"-1"-0--|

Riff 2A
|------------------------|
|------------------------|
|------------------------|
|-7-6--------------------|
|-5-4--------------------|
|------------------------|

Riff 2B
|------------------------|
|------------------------|
|------------------------|
|------------------------|
|------------------------|
|-2"-1"-0"--3"-2"-1"-0"--|

Back to riff 1 a few more times