Stop Censorship
 
 

 
 1-9 a b c d e f g h i j k l m n o p q r s t u v w x y z
   Cephas - Live Nothing Tab    

Intro Riff

G Em C
E -------------------------------------------------------------------------------------------
B -------------------------------------------------3-----------------------------3-----------
G -----4-----5-------7-4---4h5-------4-----5---------4---4h5-------4-----5---------4---4h5---
D -5-5---5-5---5-5-5-----5-----5-----------------------5-----5-----------------------5-----5-
A -------------------------------------------------------------3-3---3-3---3-3-3-------------
E -------------------------------0-0---0-0---0-0-0-------------------------------------------

Verse Chords

G---/----/Em---/---/C---/----/D---/----

Chorus Chords (Guitar 2 repeats first part of intro riff)

Em---/C---/G---/D---

Final Chorus ("So how much can you take?") (Clean)

E --------------------------------------------
B --------------------------------------------
G ---------------4---5-4----4---5-4-----7-7-7-
D ---2---2-------5-------5--5-------5---7-7-7-
A ---2-----2---3---3------------------5-5-5-5-
E -0---0-----0-------------3--3---------------