Stop Censorship
 
 

 
 1-9 a b c d e f g h i j k l m n o p q r s t u v w x y z
   Collective Soul - Counting The Days Tab    

Song: Counting the Days
Band: Collective Soul
Album: Youth
Tuning: EBGDAE (Capo 1st Fret)

Transcribed by Inferno11
"This is my first tab and I believe its pretty accurate. Collective Souls Awesome"

(All frets relative to capo)

Riff 1 (Opening, Verses, and Solo Riff)

E---------------------------------------------------------------|
B---------------------------------------------------------------|
G---------------------------------------------------------------|
D--0---3p0-----0---3p0-----0---3p0--5/6--6--53-----------------|
A--0---3p0-----0---3p0-----0---3p0--5/6--6--53-----------------|
E--0---3p0-----0---3p0-----0---3p0--5/6--6--53-----------------|

Refrain:

E-------------------------------------------------------------------------|
B-------------------------------------------------------------------------|
G-------------------------------------------------------------------------|
D---8---8---8-8-8---3---3---3-3-3---10---10---10-10-10---5---5---5-5-5----|
A---8---8---8-8-8---3---3---3-3-3---10---10---10-10-10---5---5---5-5-5----|
E---8---8---8-8-8---3---3---3-3-3---10---10---10-10-10---5---5---5-5-5----|

Bridge:

E-------------------------------------------------------------------------|
B-------------------------------------------------------------------------|
G-------------------------------------------------------------------------|
D---0-0---0-0---0-0---0-0---0-0-0-0---3-3---3-3---3-3---3-3---3-3-3-3-----|
A---0-0---0-0---0-0---0-0---0-0-0-0---3-3---3-3---3-3---3-3---3-3-3-3-----|
E---0-0---0-0---0-0---0-0---0-0-0-0---3-3---3-3---3-3---3-3---3-3-3-3-----|
Dig it, Get it, Dig it, what ya looking for?....

E--------------------------------------------------------|
B--------------------------------------------------------|
G--------------------------------------------------------|
D---5-5---5-5---5-5---5-5---5-5-5-5----------------------|
A---5-5---5-5---5-5---5-5---5-5-5-5----------------------|
E---5-5---5-5---5-5---5-5---5-5-5-5----------------------|
...Yeah I Dig!

Solo: (Go Joel! lol)
E--------------------------------------------|
B--18----17----15----13----------------------|
G-----17----17----14----12-12b14b12-10-------|
D--------------------------------------12----|
A--------------------------------------------|
E--------------------------------------------|

E--------------------------------------------|
B--18----17----15----13----------------------|
G-----17----17----14----12-12b14b12-10-12----|
D--------------------------------------------|
A--------------------------------------------|
E--------------------------------------------|

E------------------------------------------------------------------------------|
B------------------------------------------------------------------------------|
G-------------------------------------------------------------------17--19~----|
D------------------------------------------------------------------------------|
A--/17--15--17--17----/17--15--17--17----/17--15--17--15--17--17-------------|
E------------------------------------------------------------------------------|

Heres the ordere:

Riff 1 (Intro, Verse 1)
Refrain
Riff 1 (Verse 2)
Refrain
Bridge
Riff 1 (x1, then during the solo)
Solo
Refrain (x2)
Riff 1 (outro)

Remember this is my first tab and I know its not completely correct so just let me know...
condor_64@hotmail.com