Stop Censorship
 
 

 
 1-9 a b c d e f g h i j k l m n o p q r s t u v w x y z
   Collective Soul - December Tab    

Band: Collective soul
Song: December
Cd: Collective Soul(release 1996)
and 7even year itch greatest it 1994-2001(release 2001)



All the other version wern`t complete so here it is complete!!!


Standard tunning.

X: slightly mute string
p.m..:palm mute note in (this) are not play palm mute
# : play 8 times when theres a p.m...
Intro/verse:

Guitar 1
G F C Bb5
E------------3-----------------3-----------------3------------------------
B------3---3---3---------3---3---3---------3---3---3---------3------------
D----0---0-------0-----0---0-------0-----0---0-------0-----0---0---0---0--
G-------------------------------------------------------------------------
A-------------------------------------3-----------------1--------1---2----
E--3----------------1-----------------------------------------------------

If you listen clossely you can hear a second guitar

Guitar 2

E------------------------------------
B------3------3-----0----------------
D----0------0---------3--------0---0-
G------------------------------------
A----------------3--------1--1---2---
E-3------1---------------------------

Chorus: (listen to the song for the rhythms

G F C Bb5
E--3---1---0---x----------
B--3---1---1---3----------
D--0---4---0---3----------
G--0---3---2---3----------
A--2---3---3---1----------
E--3---1---x---x----------

Fill 1 (This played after the Chorus)

guitar 1 guitar 2 continue to play the chorus

E--3-3-3-5-3--1-1-1-3-1------------------------
B--3-3-3-3-3--1-1-1-1-1--5-5-5-5-5--3-3-3-3-3--
D------------------------5-5-5-7-5--3-3-3-5-3--
G----------------------------------------------
A----------------------------------------------
E----------------------------------------------



-back to the verse(see intro)
-Chorus
- Fill 1o

After ther is some kind of an interlude

Guitar 2

G5 F5 C5 Bb5
E-----------------------------
B-----------------------------
D----------5---3333(3333)-----
G--5---3---5#--3333(3333)-----
A--5#--3#--3---1111(1111)-----
E--3---1----------------------
p.m...............


After a while guitar 1 plays intro/verse over guitar 2.

Then it`s the Chorus (without fill 1 at the end).


And then it`s the intro verse played 1 time (without guitar 2)

and end on

G

E---3----------------
B---3----------------
D---0----------------
G---0----------------
A---2----------------
E---3----------------


That`s it! it`s a pretty good song.

any comment/correction e-mail me green_baypackers@hotmail.com

Jon