Stop Censorship
 
 

 
 1-9 a b c d e f g h i j k l m n o p q r s t u v w x y z
   Collective Soul - December Tab    


VERSE
e-----------------3-----------------------3----------------------
B--------3-----3-----3-----------3-----3-----3-------------------
G-----0-----0-----------0-----0-----0-----------0----------------
D----------------------------------------------------------------
A----------------------------------------------------------------
E--3-----------------------1-------------------------------------

e-----------------3----------------------------------------------
B--------3-----3-----3-----------3-------------------------------
G-----0-----0-----------0-----0-----0-----0-----0----------------
D----------------------------------------------------------------
A--3-----------------------1-----------1-----2-------------------
E--------------------------------------------------3-------------

CHORUS
e----------------------------------------------------------------
B----------------------------------------------------------------
G----------------------------------------------------------------
D--0-0-0-0-0-0-0-0--0-0-0-0-0-0-0-0------------------------------
A--2-2-2-2-2-2-2-2--0-0-0-0-0-0-0-0------------------------------
E--3-3-3-3-3-3-3-3--1-1-1-1-1-1-1-1------------------------------

e----------------------------------------------------------------
B----------------------------------------------------------------
G--0-0-0-0-0-0-0-0--0-0-0-0-0-0-0-0------------------------------
D--2-2-2-2-2-2-2-2--0-0-0-0-0-0-0-0------------------------------
A--3-3-3-3-3-3-3-3--1-1-1-1-1-1-2-2------------------------------
E----------------------------------------------------------------

Just listen to the song the get the order down, it`s really easy to loop and move from the verse to chorus.