Stop Censorship
 
 

 
 1-9 a b c d e f g h i j k l m n o p q r s t u v w x y z
   Collective Soul - December Tab    

December By Collective Soul

Stanard tuning

Chords:
G5 G5/F Csus2 G/Bb G/F
-3---3-----3-----3----3--
-3---3-----3-----3----3--
-0---0-----0-----0----0--
-0---3-----x-----0----0--
-x---x-----3-----1----2--
-3---x-----x-------------


Intro/ Verse:
-----------3----------------3----------------3-------------------------
-----3---3---3--------3---3---3--------3---3---3-------3---------------
---0---0-------0----0---0-------0----0---0-------0---0---0---0----0----
-----------------------------------------------------------------------
-----------------------------------3---------------1-------1---2-------
-3----------------1----------------------------------------------------
Other part during the verse
-----------------------------------------------------------------------
-----------------------------------------------------------------------
-------0----------------0--------------0---------------------0---0-----
----0----------------0--------------------0----------------------------
-----------------------------------3---------------1-------1---2-------
-3----------------1----------------------------------------------------


Chorus:

G5 G5/F Csus2 G/Bb G/F
-3-3--3--3--3------1-1--1--1--3--1----0---0---0---0--0---------------------------
-3-3--3--5--3------3-3--3--3--3--3----1---1---1---3--1----3----3-----3--1--------
---------------0--------------------0-------------------0-3----3--0--3-----0-----
---------------------------------------------------------------------------------
---------------------------------------------------------------------------------
---------------------------------------------------------------------------------

-3-3--3--3--3------1-1--1--1--3--1----0---0---0---0--0---------------------------
-3-3--3--5--3------3-3--3--3--3--3----1---1---1---3--1----3----3-----3--1--------
---------------0--------------------0-------------------0-3----3--0--3-----0-----
---------------------------------------------------------------------------------
---------------------------------------------------------------------------------
---------------------------------------------------------------------------------

----------------------------------------------------------------
----------------------------------------------------------------
-0-0-0-0-0-0-0-0-0-0-0-0-0-0-0-0-0-0-0-0-0-0-0-0-3-3-3-3-3-3-3-3
-0-0-0-0-0-0-0-0-0-0-0-0-0-0-0-0-x-x-x-x-x-x-x-x-x-x-x-x-x-x-x-xTimes 2
-x-x-x-x-x-x-x-x-x-x-x-x-x-x-x-x-3-3-3-3-3-3-3-3-3-3-3-3-3-3-3-3
-3-3-3-3-3-3-3-3-1-1-1-1-1-1-1-1-0-0-0-0-0-0-0-0-0-0-0-0-0-0-0-0