Stop Censorship
 
 

 
 1-9 a b c d e f g h i j k l m n o p q r s t u v w x y z
   Collective Soul - December (intro) Tab    

|--------------------3---------------------3---------------------|
|------------3----3----3-----------3----3-----3------------------|
|----------0---0----------0-----0----0-----------0---------------|
|----------------------------------------------------------------|
|----------------------------------------------------------------|
|-----3----------------------1-----------------------------------|


|-----------------3----------------------------------------------|
|---------3----3-----3-------------3-----------3-----------------|
|------0-----0----------0------0------0-----0-----0--------------|
|----------------------------------------------------------------|
|---3-----------------------1------------2-----------------------|
|----------------------------------------------------------------|

and you just keep repeating those over and over again