Stop Censorship
 
 

 
 1-9 a b c d e f g h i j k l m n o p q r s t u v w x y z
   Collective Soul - Heavy Tab    

"main Riff"

|---------------------------|
|---------------------------|
|---------------------------|
|---------------------------|
|-----7------7---7---7------|
|-0-0-----0----0---0--------|


"verse"

|---------------------------|
|---------------------------|
|---------------------------|
|---------------------------|
|---------5p0-------0-0-1p0-|
|-0-0-0-0-----5-0h3---------|


"chours"
G

|-1-------------------------|
|-0-------------------------|
|-0-------------------------|
|-0-------------------------|
|-2-------------------------|
|-3-------------------------|


"Solo Rhythm"

|---------------------------|
|---------------------------|
|-3-------5-----------------|
|-3---3---5-----------------|
|-5---3---3-----------------|
|-----5------3~~-2~~--------|


|---------------------------|
|---------------------8--8-8|
|---------------------7--7-7|
|---------------------------|
|-----7-----7---7---7-7--7-7|
|-0-0-----0---0---0---------|

That`s about it......I`ll figure the Solo to the soung out in a couple days.....i`ll put it on here ENJOY!!