Stop Censorship
 
 

 
 1-9 a b c d e f g h i j k l m n o p q r s t u v w x y z
   Collective Soul - Heavy Tab    

Heavy

This song is awesome its very easy its good for beginners
Here it goes:

"main Riff"

|---------------------------|
|---------------------------|
|---------------------------|
|---------------------------|
|-----7------7---7---7------|
|-0-0-----0----0---0--------|


"verse"

|---------------------------|
|---------------------------|
|---------------------------|
|---------------------------|
|---------------------0-1p0-|
|-0-0-0-0-3h5-0-0h3h5-------|


"chours"


|---------------------------|
|---------------------------|
|---------------------------|
|-5-------------------------|
|-5-------------------------|
|-3-------------------------|


"Solo Rhythm"

|---------------------------|
|---------------------------|
|-7-------5-----------------|
|-7---7---5-----------------|
|-5---7---3-----------------|
|-----5------3~~-2~~--------|


|---------------------------|
|---------------------8--8-8|
|---------------------7--7-7|
|---------------------------|
|-----7-----7---7---7-7--7-7|
|-0-0-----0---0---0---------|

If you find any mistakes just mail me douglasurrutia1@hotmail.com
Cinthia I Love You we will always be together