Stop Censorship
 
 

 
 1-9 a b c d e f g h i j k l m n o p q r s t u v w x y z
   Collective Soul - Maybe Tab    

Song: Maybe
Artist: Collective Soul
User: Cujofreak
E-Mail: cujofreak@hotmail.com

Verse Chords: G D/F# Em7 C9
e-----3---3----3---3-
B-----3---3----3---3-
G-----0---2----0---0-
D-----0---0----2---2-
A-----2---0----2---3-
E-----3---2----0-----

Intro/Verse
e----3-----3--------3-----3--------3-----3--------3-----3-------
B----3-----3--------3-----3--------3-----3--------3-----3-------
G----0-----0--------2-----2--------0-----0--------0-----0-------
D-00---000---0---00---000---0---22---222---2---22---222---2----- X5
A-22---222---2---00---000---0---22---222---2---33---333---3-----
E-33---333---3---22---222---2---00---000---0---00---000---0-----

Pre Chorus Chords: As4 A C9
E---------3-
B-3---2---3-
G-2---2---0-
D-2---2---2-
A-0---0---3-
E-----------

Pre Chorus:
| 8 | | 8 | | 16 |
e-----------------------3333333333333333--------------
B-33333333---22222222---3333333333333333--------------
G-22222222---22222222---0000000000000000--------------
D-22222222---22222222---2222222222222222--------------
A-00000000--------------3333333333333333--------------
E-----------------------------------------------------

Chorus Chords: G C9 Am As2 G/B
E-----3---3---0---0---0-
B-----3---3---1---0---3-
G-----0---0---2---2---0-
D-----0---3---2---2---0-
A-----2---2---0---0---2-
E-----3---0-------------

Chorus
| 8 | | 8 | | 12 | | 18 |
e-33333333---33333333---33333333---33333333---------------------------333333333333333333----
B-33333333---33333333---33333333---33333333---111111111111---00---3---333333333333333333----
G-00000000---00000000---00000000---00000000---222222222222---22---0---000000000000000000----
D-00000000---22222222---00000000---22222222---222222222222---22---0---222222222222222222----
A-22222222---33333333---22222222---33333333-----------------------2---333333333333333333----
E-33333333--------------33333333------------------------------------------------------------

Intro/Verse
e----3-----3--------3-----3--------3-----3--------3-----3-------
B----3-----3--------3-----3--------3-----3--------3-----3-------
G----0-----0--------2-----2--------0-----0--------0-----0-------
D-00---000---0---00---000---0---22---222---2---22---222---2----- X6
A-22---222---2---00---000---0---22---222---2---33---333---3-----
E-33---333---3---22---222---2---00---000---0---00---000---0-----

Pre Chorus:
e-----------------------3333333333333333--------------
B-33333333---22222222---3333333333333333--------------
G-22222222---22222222---0000000000000000--------------
D-22222222---22222222---2222222222222222--------------
A-00000000--------------3333333333333333--------------
E-----------------------------------------------------

Chorus
e-33333333---33333333---33333333---33333333---------------------------333333333333333333----
B-33333333---33333333---33333333---33333333---111111111111---00---3---333333333333333333----
G-00000000---00000000---00000000---00000000---222222222222---22---0---000000000000000000----
D-00000000---22222222---00000000---22222222---222222222222---22---0---222222222222222222----
A-22222222---33333333---22222222---33333333-----------------------2---333333333333333333----
E-33333333--------------33333333------------------------------------------------------------

Bridge
| 8 | | 16 | | 16 |
e-33333333---33333333---33333333---33333333---3333333333333333---3333333333333333---
B-33333333---33333333---33333333---33333333---3333333333333333---3333333333333333---
G-00000000---00000000---00000000---00000000---0000000000000000---2222222222222222---
D-22222222---22222222---22222222---22222222---0000000000000000---0000000000000000---
A-22222222---33333333---22222222---33333333---2222222222222222---0000000000000000---
E---------------------------------------------3333333333333333---2222222222222222---

Interlude
e----3-----3--------3-----3--------3-----3--------3-----3-------
B----3-----3--------3-----3--------3-----3--------3-----3-------
G----0-----0--------2-----2--------0-----0--------0-----0-------
D-00---000---0---00---000---0---22---222---2---22---222---2----- X4
A-22---222---2---00---000---0---22---222---2---33---333---3-----
E-33---333---3---22---222---2---00---000---0---00---000---0-----

Pre Chorus:
e-----------------------3333333333333333--------------
B-33333333---22222222---3333333333333333--------------
G-22222222---22222222---0000000000000000--------------
D-22222222---22222222---2222222222222222--------------
A-00000000--------------3333333333333333--------------
E-----------------------------------------------------

Chorus
e-33333333---33333333---33333333---33333333---------------------------333333333333333333----
B-33333333---33333333---33333333---33333333---111111111111---00---3---333333333333333333----
G-00000000---00000000---00000000---00000000---222222222222---22---0---000000000000000000----
D-00000000---22222222---00000000---22222222---222222222222---22---0---222222222222222222---- X2
A-22222222---33333333---22222222---33333333-----------------------2---333333333333333333----
E-33333333--------------33333333------------------------------------------------------------

End
e-3-
B-3-
G-0-
D-0-
A-2-
E-3-


This tab is 100% correct
If you have any questions please email me at :
cujofreak@hotmail.com

Thanks---Chris