Stop Censorship
 
 

 
 1-9 a b c d e f g h i j k l m n o p q r s t u v w x y z
   Collective Soul - No More No Less Tab    


guitar & bass tabs - reviews - ug column - lessons - forums - news - help ug home
your #1 source for tabs!






collective soul
no more no less
Album: Dosage
Tabbed by: jdanz
Email ; ghojdanz@yahoo.com

Intro
G---------------------------------------
D---------------------------------------
A-----7h8-9-10-11-----------------------
E-7-7-----------------------------------

Verse
G---------------------------------------
D---------------------------------------
A---9-7-9h10----------------------------
E-7----------7-9-7-9h10------------------

When he stars to sing "Don`t bring me down"
G----------------------------------------------
D----------------------------------------------
A-----------------------------------------7-9h10
E-7-7-7-7-7/0-0-0-0-7-7-7-7-712-12-12-12------

Chorus X2
G------------I--------------------------
D------------I--------------------------
A---9-7-9---9I---9-7-9-10-11---9-7-5-7-9
E-7-------7--I-7-------------7----------
Play the intro after he says "Let`s shake it like this"

For the guitar solo play the verse. Thats pretty much this
except for at the end where it slows down. Just hit a 7 on
the E string. Then play the intro for the outro.


add managok city