Stop Censorship
 
 

 
 1-9 a b c d e f g h i j k l m n o p q r s t u v w x y z
   Collective Soul - Reunion Tab    

Collective Soul - Reunion

Tabbed by: Daniel Ortega
E-mail: daniel_ortega911@hotmail.com
Tuning: Standard

Intro

E|------3----------------------3---------------- 2X
B|--------3----------------------3--------------
G|----0-----0----------------0-----0------------
D|-----------------2-0--------------------------
A|-------------2-3--------------------2-3-0-----
E|--3----------------------3--------------------

Verse
G C G

E|-----3-----------------3-----------------3---------3---3----3--------3----- 2x
B|-------3-----------------3-----------------3-------3---3------3------3-----
G|---------0-----------------0-----------------0-----0---0--------0----0-----
D|---------------------------------------------------2---0-------------2-----
A|--------------------3------------------------------3---2-------------3-----
E|--3------------------------------------3---------------3-------------------
"Change will come , change is here..."


Chorus Em C G D C

E|--------0-----------------0---------------3---------------2---------0---3---3-------
B|--------0-----------------1---------------3---------------3---------3---3---3-------
G|--------0-----------------0---------------0---------------2---------2---2---0-------
D|--------2-----------------2---------------0---------------0---------0---0---2-------
A|--------2-----------------3---------------2---------------------------------3-------
E|--------0---------------------------------3-----------------------------------------
"Now my water`s turned to wine and these thoughts I have I now can claim as mine"


Then repeat intro

Then repeat chorus


SOLO (01:46)

1st guitar
E|------10----10----------------------------------------------------------------------------------
B|--10^----12----12---------0-3-0-3h5-3--0-3-0-3h5-3----------------------12-------------12-------
G|--------------------12~-----------------------------0-2-0-2---2/12----12---12-12-----12--12-----
D|--------------------------------------------------------------------12-------------12------12---
A|------------------------------------------------------------------------------------------------
E|------------------------------------------------------------------------------------------------ (continues...)

E|----------------------------------------------------10h12-10---------
B|--------12---12-13-13h15-13-12------12-----------12---------12-------
G|------12--12----------------------12--12-12----12---------------12~--
D|----12--------------------------12-----------12----------------------
A|---------------------------------------------------------------------
E|---------------------------------------------------------------------


2nd guitar: PLAY Em-C-G-D Em-C-G-D-C


OUTRO (02:13)

E|------3----------------------3----------------
B|--------3----------------------3--------------
G|----0-----0----------------0-----0------------
D|-----------------2-0--------------------------
A|-------------2-3--------------------2-3-0-----
E|--3----------------------3--------------------

E|------3----------------------3----------------
B|--------3----------------------3--------------
G|----0-----0----------------0-----0------------
D|-----------------2-0--------------------------
A|-------------2-3--------------------2-3-0-----
E|--3----------------------3--------------------

E|---3------|
B|---3------|
G|---0------|
D|---0------|
A|---2------|
E|---3------|


Any questions, comments, requests, threats?? Please e-mail me.
Have fun playing this!!